  0
SECTION
  2
HEADER
  9
$ACADVER
  1
AC1018
  9
$ACADMAINTVER
 70
     0
  9
$DWGCODEPAGE
  3
ANSI_1252
  9
$INSBASE
 10
0.0
 20
0.0
 30
0.0
  9
$EXTMIN
 10
-0.5
 20
-0.5
 30
-0.5
  9
$EXTMAX
 10
5.0
 20
5.0
 30
5.0
  9
$LIMMIN
 10
-0.5
 20
-0.5
  9
$LIMMAX
 10
5.0
 20
5.0
  9
$ORTHOMODE
 70
     0
  9
$REGENMODE
 70
     1
  9
$FILLMODE
 70
     1
  9
$QTEXTMODE
 70
     0
  9
$MIRRTEXT
 70
     1
  9
$LTSCALE
 40
1.0
  9
$ATTMODE
 70
     1
  9
$TEXTSIZE
 40
0.2
  9
$TRACEWID
 40
0.05
  9
$TEXTSTYLE
  7
Standard
  9
$CLAYER
  8
0
  9
$CELTYPE
  6
ByLayer
  9
$CECOLOR
 62
   256
  9
$CELTSCALE
 40
1.0
  9
$DISPSILH
 70
     0
  9
$DIMSCALE
 40
1.0
  9
$DIMASZ
 40
0.18
  9
$DIMEXO
 40
0.0625
  9
$DIMDLI
 40
0.38
  9
$DIMRND
 40
0.0
  9
$DIMDLE
 40
0.0
  9
$DIMEXE
 40
0.18
  9
$DIMTP
 40
0.0
  9
$DIMTM
 40
0.0
  9
$DIMTXT
 40
0.18
  9
$DIMCEN
 40
0.09
  9
$DIMTSZ
 40
0.0
  9
$DIMTOL
 70
     0
  9
$DIMLIM
 70
     0
  9
$DIMTIH
 70
     1
  9
$DIMTOH
 70
     1
  9
$DIMSE1
 70
     0
  9
$DIMSE2
 70
     0
  9
$DIMTAD
 70
     0
  9
$DIMZIN
 70
     0
  9
$DIMBLK
  1

  9
$DIMASO
 70
     1
  9
$DIMSHO
 70
     1
  9
$DIMPOST
  1

  9
$DIMAPOST
  1

  9
$DIMALT
 70
     0
  9
$DIMALTD
 70
     2
  9
$DIMALTF
 40
25.4
  9
$DIMLFAC
 40
1.0
  9
$DIMTOFL
 70
     0
  9
$DIMTVP
 40
0.0
  9
$DIMTIX
 70
     0
  9
$DIMSOXD
 70
     0
  9
$DIMSAH
 70
     0
  9
$DIMBLK1
  1

  9
$DIMBLK2
  1

  9
$DIMSTYLE
  2
Standard
  9
$DIMCLRD
 70
     0
  9
$DIMCLRE
 70
     0
  9
$DIMCLRT
 70
     0
  9
$DIMTFAC
 40
1.0
  9
$DIMGAP
 40
0.09
  9
$DIMJUST
 70
     0
  9
$DIMSD1
 70
     0
  9
$DIMSD2
 70
     0
  9
$DIMTOLJ
 70
     1
  9
$DIMTZIN
 70
     0
  9
$DIMALTZ
 70
     0
  9
$DIMALTTZ
 70
     0
  9
$DIMUPT
 70
     0
  9
$DIMDEC
 70
     4
  9
$DIMTDEC
 70
     4
  9
$DIMALTU
 70
     2
  9
$DIMALTTD
 70
     2
  9
$DIMTXSTY
  7
Standard
  9
$DIMAUNIT
 70
     0
  9
$DIMADEC
 70
     0
  9
$DIMALTRND
 40
0.0
  9
$DIMAZIN
 70
     0
  9
$DIMDSEP
 70
    46
  9
$DIMATFIT
 70
     3
  9
$DIMFRAC
 70
     0
  9
$DIMLDRBLK
  1

  9
$DIMLUNIT
 70
     2
  9
$DIMLWD
 70
    -2
  9
$DIMLWE
 70
    -2
  9
$DIMTMOVE
 70
     0
  9
$LUNITS
 70
     2
  9
$LUPREC
 70
     4
  9
$SKETCHINC
 40
0.1
  9
$FILLETRAD
 40
0.5
  9
$AUNITS
 70
     0
  9
$AUPREC
 70
     0
  9
$MENU
  1
.
  9
$ELEVATION
 40
0.0
  9
$PELEVATION
 40
0.0
  9
$THICKNESS
 40
0.0
  9
$LIMCHECK
 70
     0
  9
$CHAMFERA
 40
0.0
  9
$CHAMFERB
 40
0.0
  9
$CHAMFERC
 40
0.0
  9
$CHAMFERD
 40
0.0
  9
$SKPOLY
 70
     0
  9
$TDCREATE
 40
2460054.590544317
  9
$TDUCREATE
 40
2460054.507210984
  9
$TDUPDATE
 40
2460054.590544792
  9
$TDUUPDATE
 40
2460054.507211458
  9
$TDINDWG
 40
0.0000000116
  9
$TDUSRTIMER
 40
0.0000000116
  9
$USRTIMER
 70
     1
  9
$ANGBASE
 50
0.0
  9
$ANGDIR
 70
     0
  9
$PDMODE
 70
     0
  9
$PDSIZE
 40
0.0
  9
$PLINEWID
 40
0.0
  9
$SPLFRAME
 70
     0
  9
$SPLINETYPE
 70
     6
  9
$SPLINESEGS
 70
     8
  9
$HANDSEED
  5
1DB
  9
$SURFTAB1
 70
     6
  9
$SURFTAB2
 70
     6
  9
$SURFTYPE
 70
     6
  9
$SURFU
 70
     6
  9
$SURFV
 70
     6
  9
$UCSBASE
  2

  9
$UCSNAME
  2

  9
$UCSORG
 10
0.0
 20
0.0
 30
0.0
  9
$UCSXDIR
 10
1.0
 20
0.0
 30
0.0
  9
$UCSYDIR
 10
0.0
 20
1.0
 30
0.0
  9
$UCSORTHOREF
  2

  9
$UCSORTHOVIEW
 70
     0
  9
$UCSORGTOP
 10
0.0
 20
0.0
 30
0.0
  9
$UCSORGBOTTOM
 10
0.0
 20
0.0
 30
0.0
  9
$UCSORGLEFT
 10
0.0
 20
0.0
 30
0.0
  9
$UCSORGRIGHT
 10
0.0
 20
0.0
 30
0.0
  9
$UCSORGFRONT
 10
0.0
 20
0.0
 30
0.0
  9
$UCSORGBACK
 10
0.0
 20
0.0
 30
0.0
  9
$PUCSBASE
  2

  9
$PUCSNAME
  2

  9
$PUCSORG
 10
0.0
 20
0.0
 30
0.0
  9
$PUCSXDIR
 10
1.0
 20
0.0
 30
0.0
  9
$PUCSYDIR
 10
0.0
 20
1.0
 30
0.0
  9
$PUCSORTHOREF
  2

  9
$PUCSORTHOVIEW
 70
     0
  9
$PUCSORGTOP
 10
0.0
 20
0.0
 30
0.0
  9
$PUCSORGBOTTOM
 10
0.0
 20
0.0
 30
0.0
  9
$PUCSORGLEFT
 10
0.0
 20
0.0
 30
0.0
  9
$PUCSORGRIGHT
 10
0.0
 20
0.0
 30
0.0
  9
$PUCSORGFRONT
 10
0.0
 20
0.0
 30
0.0
  9
$PUCSORGBACK
 10
0.0
 20
0.0
 30
0.0
  9
$USERI1
 70
     0
  9
$USERI2
 70
     0
  9
$USERI3
 70
     0
  9
$USERI4
 70
     0
  9
$USERI5
 70
     0
  9
$USERR1
 40
0.0
  9
$USERR2
 40
0.0
  9
$USERR3
 40
0.0
  9
$USERR4
 40
0.0
  9
$USERR5
 40
0.0
  9
$WORLDVIEW
 70
     1
  9
$SHADEDGE
 70
     3
  9
$SHADEDIF
 70
    70
  9
$TILEMODE
 70
     1
  9
$MAXACTVP
 70
    64
  9
$PINSBASE
 10
0.0
 20
0.0
 30
0.0
  9
$PLIMCHECK
 70
     0
  9
$PEXTMIN
 10
-0.5
 20
-0.5
 30
-0.5
  9
$PEXTMAX
 10
5.0
 20
5.0
 30
5.0
  9
$PLIMMIN
 10
-0.5
 20
-0.5
  9
$PLIMMAX
 10
5.0
 20
5.0
  9
$UNITMODE
 70
     0
  9
$VISRETAIN
 70
     1
  9
$PLINEGEN
 70
     0
  9
$PSLTSCALE
 70
     1
  9
$TREEDEPTH
 70
  3020
  9
$CMLSTYLE
  2
Standard
  9
$CMLJUST
 70
     0
  9
$CMLSCALE
 40
1.0
  9
$PROXYGRAPHICS
 70
     1
  9
$MEASUREMENT
 70
     1
  9
$CELWEIGHT
370
    18
  9
$ENDCAPS
280
     0
  9
$JOINSTYLE
280
     0
  9
$LWDISPLAY
290
     1
  9
$INSUNITS
 70
     4
  9
$HYPERLINKBASE
  1

  9
$STYLESHEET
  1

  9
$XEDIT
290
     1
  9
$CEPSNTYPE
380
     0
  9
$PSTYLEMODE
290
     1
  9
$FINGERPRINTGUID
  2
{AC8F4AAF-0DD6-4A03-A3D2-7FEFDA5B1671}
  9
$VERSIONGUID
  2
{FAEB1C32-E019-11D5-929B-00C0DF256EC4}
  9
$EXTNAMES
290
     1
  9
$PSVPSCALE
 40
0.0
  9
$OLESTARTUP
290
     0
  9
$SORTENTS
280
   127
  9
$INDEXCTL
280
     0
  9
$HIDETEXT
280
     1
  9
$XCLIPFRAME
290
     0
  9
$HALOGAP
280
     0
  9
$OBSCOLOR
 70
   257
  9
$OBSLTYPE
280
     0
  9
$INTERSECTIONDISPLAY
280
     0
  9
$INTERSECTIONCOLOR
 70
   257
  9
$DIMASSOC
280
     2
  9
$PROJECTNAME
  1

  0
ENDSEC
  0
SECTION
  2
CLASSES
  0
CLASS
  1
ACDBDICTIONARYWDFLT
  2
AcDbDictionaryWithDefault
  3
ObjectDBX Classes
 90
        0
 91
        3
280
     0
281
     0
  0
CLASS
  1
VISUALSTYLE
  2
AcDbVisualStyle
  3
ObjectDBX Classes
 90
     4095
 91
        3
280
     0
281
     0
  0
CLASS
  1
MATERIAL
  2
AcDbMaterial
  3
ObjectDBX Classes
 90
     1153
 91
        3
280
     0
281
     0
  0
CLASS
  1
SCALE
  2
AcDbScale
  3
ObjectDBX Classes
 90
     1153
 91
        3
280
     0
281
     0
  0
CLASS
  1
TABLESTYLE
  2
AcDbTableStyle
  3
ObjectDBX Classes
 90
     4095
 91
        3
280
     0
281
     0
  0
CLASS
  1
MLEADERSTYLE
  2
AcDbMLeaderStyle
  3
ACDB_MLEADERSTYLE_CLASS
 90
     4095
 91
        3
280
     0
281
     0
  0
CLASS
  1
SUN
  2
AcDbSun
  3
SCENEOE
 90
     1153
 91
        3
280
     0
281
     0
  0
CLASS
  1
DICTIONARYVAR
  2
AcDbDictionaryVar
  3
ObjectDBX Classes
 90
        0
 91
        3
280
     0
281
     0
  0
CLASS
  1
CELLSTYLEMAP
  2
AcDbCellStyleMap
  3
ObjectDBX Classes
 90
     1152
 91
        3
280
     0
281
     0
  0
ENDSEC
  0
SECTION
  2
TABLES
  0
TABLE
  2
VPORT
  5
8
102
{ACAD_XDICTIONARY
360
194
102
}
330
0
100
AcDbSymbolTable
 70
    16
  0
VPORT
  5
29
330
8
100
AcDbSymbolTableRecord
100
AcDbViewportTableRecord
  2
*Active
 70
     0
 10
0.0
 20
0.0
 11
1.0
 21
1.0
 12
589.105903
 22
448.128853
 13
0.0
 23
0.0
 14
0.5
 24
0.5
 15
0.5
 25
0.5
 16
0.0
 26
0.0
 36
1.0
 17
0.0
 27
0.0
 37
0.0
 40
254.0
 41
0.069908
 42
50.0
 43
1380.997592
 44
-1380.997592
 50
0.0
 51
0.0
 71
     0
 72
   100
 73
     1
 74
     3
 75
     0
 76
     0
 77
     0
 78
     0
281
     0
 65
     1
110
0.0
120
0.0
130
0.0
111
1.0
121
0.0
131
0.0
112
0.0
122
1.0
132
0.0
 79
     0
146
0.0
  0
VPORT
  5
185
330
8
100
AcDbSymbolTableRecord
100
AcDbViewportTableRecord
  2
L1
 70
     0
 10
0.0
 20
0.0
 11
1.0
 21
1.0
 12
589.105903
 22
448.128853
 13
0.0
 23
0.0
 14
0.5
 24
0.5
 15
0.5
 25
0.5
 16
0.0
 26
0.0
 36
1.0
 17
0.0
 27
0.0
 37
0.0
 40
254.0
 41
0.069908
 42
50.0
 43
1380.997592
 44
-1380.997592
 50
0.0
 51
0.0
 71
     0
 72
   100
 73
     1
 74
     3
 75
     0
 76
     0
 77
     0
 78
     0
281
     0
 65
     1
110
0.0
120
0.0
130
0.0
111
1.0
121
0.0
131
0.0
112
0.0
122
1.0
132
0.0
 79
     0
146
0.0
  0
VPORT
  5
186
330
8
100
AcDbSymbolTableRecord
100
AcDbViewportTableRecord
  2
L2
 70
     0
 10
0.0
 20
0.0
 11
0.5
 21
1.0
 12
0.0
 22
0.0
 13
0.0
 23
0.0
 14
0.5
 24
0.5
 15
0.5
 25
0.5
 16
0.0
 26
-1.0
 36
0.0
 17
0.0
 27
0.0
 37
0.0
 40
1554.140024
 41
0.011425
 42
50.0
 43
799.170128
 44
-799.170128
 50
0.0
 51
0.0
 71
     0
 72
   100
 73
     1
 74
     3
 75
     0
 76
     0
 77
     0
 78
     0
281
     0
 65
     1
110
0.0
120
0.0
130
0.0
111
1.0
121
0.0
131
0.0
112
0.0
122
1.0
132
0.0
 79
     0
146
0.0
  0
VPORT
  5
187
330
8
100
AcDbSymbolTableRecord
100
AcDbViewportTableRecord
  2
L2
 70
     0
 10
0.5
 20
0.0
 11
1.0
 21
1.0
 12
0.0
 22
0.0
 13
0.0
 23
0.0
 14
0.5
 24
0.5
 15
0.5
 25
0.5
 16
1.0
 26
0.0
 36
0.0
 17
0.0
 27
0.0
 37
0.0
 40
1554.140024
 41
0.011425
 42
50.0
 43
787.379708
 44
-787.379708
 50
0.0
 51
0.0
 71
     0
 72
   100
 73
     1
 74
     3
 75
     0
 76
     0
 77
     0
 78
     0
281
     0
 65
     1
110
0.0
120
0.0
130
0.0
111
1.0
121
0.0
131
0.0
112
0.0
122
1.0
132
0.0
 79
     0
146
0.0
  0
VPORT
  5
188
330
8
100
AcDbSymbolTableRecord
100
AcDbViewportTableRecord
  2
L3
 70
     0
 10
0.0
 20
0.5
 11
1.0
 21
1.0
 12
589.105903
 22
448.128853
 13
0.0
 23
0.0
 14
0.5
 24
0.5
 15
0.5
 25
0.5
 16
0.0
 26
0.0
 36
1.0
 17
0.0
 27
0.0
 37
0.0
 40
254.0
 41
0.069908
 42
50.0
 43
1380.997592
 44
-1380.997592
 50
0.0
 51
0.0
 71
     0
 72
   100
 73
     1
 74
     3
 75
     0
 76
     0
 77
     0
 78
     0
281
     0
 65
     1
110
0.0
120
0.0
130
0.0
111
1.0
121
0.0
131
0.0
112
0.0
122
1.0
132
0.0
 79
     0
146
0.0
  0
VPORT
  5
189
330
8
100
AcDbSymbolTableRecord
100
AcDbViewportTableRecord
  2
L3
 70
     0
 10
0.0
 20
0.0
 11
1.0
 21
0.5
 12
0.0
 22
0.0
 13
0.0
 23
0.0
 14
0.5
 24
0.5
 15
0.5
 25
0.5
 16
0.0
 26
-1.0
 36
0.0
 17
0.0
 27
0.0
 37
0.0
 40
1554.140024
 41
0.011425
 42
50.0
 43
799.170128
 44
-799.170128
 50
0.0
 51
0.0
 71
     0
 72
   100
 73
     1
 74
     3
 75
     0
 76
     0
 77
     0
 78
     0
281
     0
 65
     1
110
0.0
120
0.0
130
0.0
111
1.0
121
0.0
131
0.0
112
0.0
122
1.0
132
0.0
 79
     0
146
0.0
  0
VPORT
  5
18A
330
8
100
AcDbSymbolTableRecord
100
AcDbViewportTableRecord
  2
L4
 70
     0
 10
0.0
 20
0.5
 11
0.5
 21
1.0
 12
589.105903
 22
448.128853
 13
0.0
 23
0.0
 14
0.5
 24
0.5
 15
0.5
 25
0.5
 16
0.0
 26
0.0
 36
1.0
 17
0.0
 27
0.0
 37
0.0
 40
254.0
 41
0.069908
 42
50.0
 43
1380.997592
 44
-1380.997592
 50
0.0
 51
0.0
 71
     0
 72
   100
 73
     1
 74
     3
 75
     0
 76
     0
 77
     0
 78
     0
281
     0
 65
     1
110
0.0
120
0.0
130
0.0
111
1.0
121
0.0
131
0.0
112
0.0
122
1.0
132
0.0
 79
     0
146
0.0
  0
VPORT
  5
18B
330
8
100
AcDbSymbolTableRecord
100
AcDbViewportTableRecord
  2
L4
 70
     0
 10
0.0
 20
0.0
 11
0.5
 21
0.5
 12
0.0
 22
0.0
 13
0.0
 23
0.0
 14
0.5
 24
0.5
 15
0.5
 25
0.5
 16
0.0
 26
-1.0
 36
0.0
 17
0.0
 27
0.0
 37
0.0
 40
1554.140024
 41
0.011425
 42
50.0
 43
799.170128
 44
-799.170128
 50
0.0
 51
0.0
 71
     0
 72
   100
 73
     1
 74
     3
 75
     0
 76
     0
 77
     0
 78
     0
281
     0
 65
     1
110
0.0
120
0.0
130
0.0
111
1.0
121
0.0
131
0.0
112
0.0
122
1.0
132
0.0
 79
     0
146
0.0
  0
VPORT
  5
18C
330
8
100
AcDbSymbolTableRecord
100
AcDbViewportTableRecord
  2
L4
 70
     0
 10
0.5
 20
0.0
 11
1.0
 21
0.5
 12
0.0
 22
0.0
 13
0.0
 23
0.0
 14
0.5
 24
0.5
 15
0.5
 25
0.5
 16
1.0
 26
0.0
 36
0.0
 17
0.0
 27
0.0
 37
0.0
 40
1554.140024
 41
0.011425
 42
50.0
 43
787.379708
 44
-787.379708
 50
0.0
 51
0.0
 71
     0
 72
   100
 73
     1
 74
     3
 75
     0
 76
     0
 77
     0
 78
     0
281
     0
 65
     1
110
0.0
120
0.0
130
0.0
111
1.0
121
0.0
131
0.0
112
0.0
122
1.0
132
0.0
 79
     0
146
0.0
  0
VPORT
  5
18D
330
8
100
AcDbSymbolTableRecord
100
AcDbViewportTableRecord
  2
L4
 70
     0
 10
0.5
 20
0.5
 11
1.0
 21
1.0
 12
0.0
 22
0.0
 13
0.0
 23
0.0
 14
0.5
 24
0.5
 15
0.5
 25
0.5
 16
0.5773502691896258
 26
-0.5773502691896258
 36
0.5773502691896258
 17
0.0
 27
0.0
 37
0.0
 40
1525.037316
 41
0.011643
 42
50.0
 43
794.116007
 44
-794.116007
 50
0.0
 51
0.0
 71
     0
 72
   100
 73
     1
 74
     3
 75
     0
 76
     0
 77
     0
 78
     0
281
     0
 65
     1
110
0.0
120
0.0
130
0.0
111
1.0
121
0.0
131
0.0
112
0.0
122
1.0
132
0.0
 79
     0
146
0.0
  0
VPORT
  5
18E
330
8
100
AcDbSymbolTableRecord
100
AcDbViewportTableRecord
  2
L6
 70
     0
 10
0.0
 20
0.5
 11
0.333333
 21
1.0
 12
0.0
 22
0.0
 13
0.0
 23
0.0
 14
0.5
 24
0.5
 15
0.5
 25
0.5
 16
0.7188730927569433
 26
-0.5850486126764433
 36
0.3754192287502549
 17
0.0
 27
0.0
 37
0.0
 40
1609.344902
 41
0.011034
 42
50.0
 43
833.240238
 44
-833.240238
 50
0.0
 51
0.0
 71
     0
 72
   100
 73
     1
 74
     3
 75
     0
 76
     0
 77
     0
 78
     0
281
     0
 65
     1
110
0.0
120
0.0
130
0.0
111
1.0
121
0.0
131
0.0
112
0.0
122
1.0
132
0.0
 79
     0
146
0.0
  0
VPORT
  5
18F
330
8
100
AcDbSymbolTableRecord
100
AcDbViewportTableRecord
  2
L6
 70
     0
 10
0.0
 20
0.0
 11
0.333333
 21
0.5
 12
0.0
 22
0.0
 13
0.0
 23
0.0
 14
0.5
 24
0.5
 15
0.5
 25
0.5
 16
-1.0
 26
0.0
 36
0.0
 17
0.0
 27
0.0
 37
0.0
 40
1554.140024
 41
0.011425
 42
50.0
 43
787.379708
 44
-787.379708
 50
0.0
 51
0.0
 71
     0
 72
   100
 73
     1
 74
     3
 75
     0
 76
     0
 77
     0
 78
     0
281
     0
 65
     1
110
0.0
120
0.0
130
0.0
111
1.0
121
0.0
131
0.0
112
0.0
122
1.0
132
0.0
 79
     0
146
0.0
  0
VPORT
  5
190
330
8
100
AcDbSymbolTableRecord
100
AcDbViewportTableRecord
  2
L6
 70
     0
 10
0.333333
 20
0.5
 11
0.666667
 21
1.0
 12
589.105903
 22
448.128853
 13
0.0
 23
0.0
 14
0.5
 24
0.5
 15
0.5
 25
0.5
 16
0.0
 26
0.0
 36
1.0
 17
0.0
 27
0.0
 37
0.0
 40
254.0
 41
0.069908
 42
50.0
 43
1380.997592
 44
-1380.997592
 50
0.0
 51
0.0
 71
     0
 72
   100
 73
     1
 74
     3
 75
     0
 76
     0
 77
     0
 78
     0
281
     0
 65
     1
110
0.0
120
0.0
130
0.0
111
1.0
121
0.0
131
0.0
112
0.0
122
1.0
132
0.0
 79
     0
146
0.0
  0
VPORT
  5
191
330
8
100
AcDbSymbolTableRecord
100
AcDbViewportTableRecord
  2
L6
 70
     0
 10
0.333333
 20
0.0
 11
0.666667
 21
0.5
 12
0.0
 22
0.0
 13
0.0
 23
0.0
 14
0.5
 24
0.5
 15
0.5
 25
0.5
 16
0.0
 26
-1.0
 36
0.0
 17
0.0
 27
0.0
 37
0.0
 40
1554.140024
 41
0.011425
 42
50.0
 43
799.170128
 44
-799.170128
 50
0.0
 51
0.0
 71
     0
 72
   100
 73
     1
 74
     3
 75
     0
 76
     0
 77
     0
 78
     0
281
     0
 65
     1
110
0.0
120
0.0
130
0.0
111
1.0
121
0.0
131
0.0
112
0.0
122
1.0
132
0.0
 79
     0
146
0.0
  0
VPORT
  5
192
330
8
100
AcDbSymbolTableRecord
100
AcDbViewportTableRecord
  2
L6
 70
     0
 10
0.666667
 20
0.5
 11
1.0
 21
1.0
 12
0.0
 22
0.0
 13
0.0
 23
0.0
 14
0.5
 24
0.5
 15
0.5
 25
0.5
 16
0.5773502691896258
 26
-0.5773502691896258
 36
0.5773502691896258
 17
0.0
 27
0.0
 37
0.0
 40
1525.037316
 41
0.011643
 42
50.0
 43
794.116007
 44
-794.116007
 50
0.0
 51
0.0
 71
     0
 72
   100
 73
     1
 74
     3
 75
     0
 76
     0
 77
     0
 78
     0
281
     0
 65
     1
110
0.0
120
0.0
130
0.0
111
1.0
121
0.0
131
0.0
112
0.0
122
1.0
132
0.0
 79
     0
146
0.0
  0
VPORT
  5
193
330
8
100
AcDbSymbolTableRecord
100
AcDbViewportTableRecord
  2
L6
 70
     0
 10
0.666667
 20
0.0
 11
1.0
 21
0.5
 12
0.0
 22
0.0
 13
0.0
 23
0.0
 14
0.5
 24
0.5
 15
0.5
 25
0.5
 16
1.0
 26
0.0
 36
0.0
 17
0.0
 27
0.0
 37
0.0
 40
1554.140024
 41
0.011425
 42
50.0
 43
787.379708
 44
-787.379708
 50
0.0
 51
0.0
 71
     0
 72
   100
 73
     1
 74
     3
 75
     0
 76
     0
 77
     0
 78
     0
281
     0
 65
     1
110
0.0
120
0.0
130
0.0
111
1.0
121
0.0
131
0.0
112
0.0
122
1.0
132
0.0
 79
     0
146
0.0
  0
ENDTAB
  0
TABLE
  2
LTYPE
  5
5
330
0
100
AcDbSymbolTable
 70
     6
  0
LTYPE
  5
14
330
5
100
AcDbSymbolTableRecord
100
AcDbLinetypeTableRecord
  2
ByBlock
 70
     0
  3

 72
    65
 73
     0
 40
0.0
  0
LTYPE
  5
15
330
5
100
AcDbSymbolTableRecord
100
AcDbLinetypeTableRecord
  2
ByLayer
 70
     0
  3

 72
    65
 73
     0
 40
0.0
  0
LTYPE
  5
16
330
5
100
AcDbSymbolTableRecord
100
AcDbLinetypeTableRecord
  2
Continuous
 70
     0
  3
Solid line
 72
    65
 73
     0
 40
0.0
  0
LTYPE
  5
6E
330
5
100
AcDbSymbolTableRecord
100
AcDbLinetypeTableRecord
  2
CENTER
 70
     0
  3
____ _ ____ _ ____ _ ____
 72
    65
 73
     4
 40
47.4
 49
22.0
 74
     4
 75
     0
340
0
 46
0.0
 50
0.0
 44
0.0
 45
0.0
 49
-8.5
 74
     4
 75
     0
340
0
 46
0.0
 50
0.0
 44
0.0
 45
0.0
 49
8.5
 74
     4
 75
     0
340
0
 46
0.0
 50
0.0
 44
0.0
 45
0.0
 49
-8.5
 74
     4
 75
     0
340
0
 46
0.0
 50
0.0
 44
0.0
 45
0.0
  0
LTYPE
  5
6F
330
5
100
AcDbSymbolTableRecord
100
AcDbLinetypeTableRecord
  2
DASHDOT
 70
     0
  3
_._._._._._._._._._._._._._._._.
 72
    65
 73
     4
 40
70.0
 49
31.0
 74
     4
 75
     0
340
0
 46
0.0
 50
0.0
 44
0.0
 45
0.0
 49
-13.0
 74
     4
 75
     0
340
0
 46
0.0
 50
0.0
 44
0.0
 45
0.0
 49
13.0
 74
     4
 75
     0
340
0
 46
0.0
 50
0.0
 44
0.0
 45
0.0
 49
-13.0
 74
     4
 75
     0
340
0
 46
0.0
 50
0.0
 44
0.0
 45
0.0
  0
LTYPE
  5
70
330
5
100
AcDbSymbolTableRecord
100
AcDbLinetypeTableRecord
  2
DASHED
 70
     0
  3
__ __ __ __ __ __ __ __ __
 72
    65
 73
     2
 40
25.72
 49
12.86
 74
     4
 75
     0
340
0
 46
0.0
 50
0.0
 44
0.0
 45
0.0
 49
-12.86
 74
     4
 75
     0
340
0
 46
0.0
 50
0.0
 44
0.0
 45
0.0
  0
LTYPE
  5
71
330
5
100
AcDbSymbolTableRecord
100
AcDbLinetypeTableRecord
  2
DOT
 70
     0
  3
.........................
 72
    65
 73
     2
 40
10.0
 49
0.0
 74
     4
 75
     0
340
0
 46
0.0
 50
0.0
 44
0.0
 45
0.0
 49
-10.0
 74
     4
 75
     0
340
0
 46
0.0
 50
0.0
 44
0.0
 45
0.0
  0
LTYPE
  5
72
330
5
100
AcDbSymbolTableRecord
100
AcDbLinetypeTableRecord
  2
PHANTOM
 70
     0
  3
____ _ _ ____ _ _ _____ _ _ ____
 72
    65
 73
     6
 40
50.5
 49
18.0
 74
     4
 75
     0
340
0
 46
0.0
 50
0.0
 44
0.0
 45
0.0
 49
-6.5
 74
     4
 75
     0
340
0
 46
0.0
 50
0.0
 44
0.0
 45
0.0
 49
6.5
 74
     4
 75
     0
340
0
 46
0.0
 50
0.0
 44
0.0
 45
0.0
 49
-6.5
 74
     4
 75
     0
340
0
 46
0.0
 50
0.0
 44
0.0
 45
0.0
 49
6.5
 74
     4
 75
     0
340
0
 46
0.0
 50
0.0
 44
0.0
 45
0.0
 49
-6.5
 74
     4
 75
     0
340
0
 46
0.0
 50
0.0
 44
0.0
 45
0.0
  0
ENDTAB
  0
TABLE
  2
LAYER
  5
2
330
0
100
AcDbSymbolTable
 70
     3
  0
LAYER
  5
10
330
2
100
AcDbSymbolTableRecord
100
AcDbLayerTableRecord
  2
0
 70
     0
 62
     7
  6
Continuous
370
    -3
390
F
  0
LAYER
  5
74
330
2
100
AcDbSymbolTableRecord
100
AcDbLayerTableRecord
  2
2
 70
     0
 62
     7
420
 16777215
  6
Continuous
370
    -3
390
F
  0
LAYER
  5
79
330
2
100
AcDbSymbolTableRecord
100
AcDbLayerTableRecord
  2
1
 70
     0
 62
     7
420
 16777215
  6
Continuous
370
    -3
390
F
  0
ENDTAB
  0
TABLE
  2
STYLE
  5
3
330
0
100
AcDbSymbolTable
 70
     1
  0
STYLE
  5
11
330
3
100
AcDbSymbolTableRecord
100
AcDbTextStyleTableRecord
  2
Standard
 70
     0
 40
0.0
 41
1.0
 50
0.0
 71
     0
 42
0.2
  3
txt
  4

  0
ENDTAB
  0
TABLE
  2
VIEW
  5
6
330
0
100
AcDbSymbolTable
 70
     0
  0
ENDTAB
  0
TABLE
  2
UCS
  5
7
330
0
100
AcDbSymbolTable
 70
     0
  0
ENDTAB
  0
TABLE
  2
APPID
  5
9
330
0
100
AcDbSymbolTable
 70
     2
  0
APPID
  5
12
330
9
100
AcDbSymbolTableRecord
100
AcDbRegAppTableRecord
  2
ACAD
 70
     0
  0
APPID
  5
1D3
330
9
100
AcDbSymbolTableRecord
100
AcDbRegAppTableRecord
  2
ACAD_MLEADERVER
 70
     0
  0
ENDTAB
  0
TABLE
  2
DIMSTYLE
  5
A
330
0
100
AcDbSymbolTable
 70
     1
100
AcDbDimStyleTable
  0
DIMSTYLE
105
27
330
A
100
AcDbSymbolTableRecord
100
AcDbDimStyleTableRecord
  2
Standard
 70
     0
178
     0
340
11
  0
ENDTAB
  0
TABLE
  2
BLOCK_RECORD
  5
1
330
0
100
AcDbSymbolTable
 70
     1
  0
BLOCK_RECORD
  5
1F
330
1
100
AcDbSymbolTableRecord
100
AcDbBlockTableRecord
  2
*Model_Space
340
22
  0
BLOCK_RECORD
  5
1B
330
1
100
AcDbSymbolTableRecord
100
AcDbBlockTableRecord
  2
*Paper_Space
340
1E
  0
BLOCK_RECORD
  5
23
330
1
100
AcDbSymbolTableRecord
100
AcDbBlockTableRecord
  2
*Paper_Space0
340
26
  0
ENDTAB
  0
ENDSEC
  0
SECTION
  2
BLOCKS
  0
BLOCK
  5
20
330
1F
100
AcDbEntity
  8
0
100
AcDbBlockBegin
  2
*Model_Space
 70
     0
 10
0.0
 20
0.0
 30
0.0
  3
*Model_Space
  1

  0
ENDBLK
  5
21
330
1F
100
AcDbEntity
  8
0
100
AcDbBlockEnd
  0
BLOCK
  5
1C
330
1B
100
AcDbEntity
 67
     1
  8
0
100
AcDbBlockBegin
  2
*Paper_Space
 70
     0
 10
0.0
 20
0.0
 30
0.0
  3
*Paper_Space
  1

  0
ENDBLK
  5
1D
330
1B
100
AcDbEntity
 67
     1
  8
0
100
AcDbBlockEnd
  0
BLOCK
  5
24
330
23
100
AcDbEntity
  8
0
100
AcDbBlockBegin
  2
*Paper_Space0
 70
     0
 10
0.0
 20
0.0
 30
0.0
  3
*Paper_Space0
  1

  0
ENDBLK
  5
25
330
23
100
AcDbEntity
  8
0
100
AcDbBlockEnd
  0
ENDSEC
  0
SECTION
  2
ENTITIES
  0
LINE
  5
73
330
1F
100
AcDbEntity
  8
2
  6
Continuous
 62
    30
370
    18
100
AcDbLine
 10
347.663895
 20
605.916741
 30
0.0
 11
347.663895
 21
680.916741
 31
0.0
  0
LINE
  5
75
330
1F
100
AcDbEntity
  8
2
  6
Continuous
 62
    30
370
    18
100
AcDbLine
 10
320.663895
 20
680.916741
 30
0.0
 11
320.663895
 21
605.916741
 31
0.0
  0
LINE
  5
76
330
1F
100
AcDbEntity
  8
2
  6
Continuous
 62
    30
370
    18
100
AcDbLine
 10
439.663895
 20
605.916741
 30
0.0
 11
439.663895
 21
680.916741
 31
0.0
  0
LINE
  5
77
330
1F
100
AcDbEntity
  8
2
  6
Continuous
 62
    30
370
    18
100
AcDbLine
 10
412.663895
 20
680.916741
 30
0.0
 11
412.663895
 21
605.916741
 31
0.0
  0
LINE
  5
78
330
1F
100
AcDbEntity
  8
1
  6
Continuous
 62
    30
370
    18
100
AcDbLine
 10
394.163895
 20
586.297702
 30
0.0
 11
393.663895
 21
586.297702
 31
0.0
  0
LINE
  5
7A
330
1F
100
AcDbEntity
  8
1
  6
Continuous
 62
    30
370
    18
100
AcDbLine
 10
366.163895
 20
578.862655
 30
0.0
 11
366.663895
 21
578.862655
 31
0.0
  0
LINE
  5
7B
330
1F
100
AcDbEntity
  8
1
  6
Continuous
 62
    30
370
    18
100
AcDbLine
 10
394.163895
 20
584.949936
 30
0.0
 11
393.663895
 21
584.949936
 31
0.0
  0
LINE
  5
7C
330
1F
100
AcDbEntity
  8
1
  6
Continuous
 62
    30
370
    18
100
AcDbLine
 10
421.300102
 20
526.416741
 30
0.0
 11
423.451619
 21
534.94982
 31
0.0
  0
LINE
  5
7D
330
1F
100
AcDbEntity
  8
1
  6
Continuous
 62
    30
370
    18
100
AcDbLine
 10
336.87617
 20
534.94982
 30
0.0
 11
339.027688
 21
526.416741
 31
0.0
  0
LINE
  5
7E
330
1F
100
AcDbEntity
  8
1
  6
Continuous
 62
    30
370
    18
100
AcDbLine
 10
394.163895
 20
588.549922
 30
0.0
 11
393.663895
 21
588.549922
 31
0.0
  0
LINE
  5
7F
330
1F
100
AcDbEntity
  8
1
  6
Continuous
 62
    30
370
    18
100
AcDbLine
 10
366.663895
 20
588.549922
 30
0.0
 11
366.163895
 21
588.549922
 31
0.0
  0
LINE
  5
80
330
1F
100
AcDbEntity
  8
1
  6
Continuous
 62
    30
370
    18
100
AcDbLine
 10
366.663895
 20
587.736264
 30
0.0
 11
366.163895
 21
587.736264
 31
0.0
  0
LINE
  5
81
330
1F
100
AcDbEntity
  8
1
  6
Continuous
 62
    30
370
    18
100
AcDbLine
 10
366.163895
 20
584.960971
 30
0.0
 11
366.663895
 21
584.960971
 31
0.0
  0
LINE
  5
82
330
1F
100
AcDbEntity
  8
1
  6
Continuous
 62
    30
370
    18
100
AcDbLine
 10
366.663895
 20
586.760971
 30
0.0
 11
366.163895
 21
586.760971
 31
0.0
  0
LINE
  5
83
330
1F
100
AcDbEntity
  8
1
  6
Continuous
 62
   252
370
    18
100
AcDbLine
 10
421.300102
 20
493.750074
 30
0.0
 11
421.300102
 21
526.416741
 31
0.0
  0
LINE
  5
84
330
1F
100
AcDbEntity
  8
1
  6
Continuous
 62
   252
370
    18
100
AcDbLine
 10
339.027688
 20
526.416741
 30
0.0
 11
339.027688
 21
493.750074
 31
0.0
  0
LINE
  5
85
330
1F
100
AcDbEntity
  8
1
  6
Continuous
 62
   252
370
    18
100
AcDbLine
 10
404.163895
 20
410.416741
 30
0.0
 11
404.163895
 21
476.416741
 31
0.0
  0
LINE
  5
86
330
1F
100
AcDbEntity
  8
1
  6
Continuous
 62
   252
370
    18
100
AcDbLine
 10
356.163895
 20
476.416741
 30
0.0
 11
356.163895
 21
410.416741
 31
0.0
  0
LINE
  5
87
330
1F
100
AcDbEntity
  8
1
  6
Continuous
 62
   252
370
    18
100
AcDbLine
 10
403.163895
 20
409.416741
 30
0.0
 11
404.163895
 21
410.416741
 31
0.0
  0
LINE
  5
88
330
1F
100
AcDbEntity
  8
1
  6
Continuous
 62
   252
370
    18
100
AcDbLine
 10
356.163895
 20
410.416741
 30
0.0
 11
357.163895
 21
409.416741
 31
0.0
  0
LINE
  5
89
330
1F
100
AcDbEntity
  8
1
  6
Continuous
 62
   252
370
    18
100
AcDbLine
 10
334.163895
 20
493.750074
 30
0.0
 11
334.163895
 21
478.416741
 31
0.0
  0
LINE
  5
8A
330
1F
100
AcDbEntity
  8
1
  6
Continuous
 62
   252
370
    18
100
AcDbLine
 10
426.163895
 20
478.416741
 30
0.0
 11
426.163895
 21
493.750074
 31
0.0
  0
LINE
  5
8B
330
1F
100
AcDbEntity
  8
2
  6
Continuous
 62
    30
370
    13
100
AcDbLine
 10
439.663895
 20
605.916741
 30
0.0
 11
412.663895
 21
605.916741
 31
0.0
  0
LINE
  5
8C
330
1F
100
AcDbEntity
  8
2
  6
Continuous
 62
    30
370
    13
100
AcDbLine
 10
320.663895
 20
605.916741
 30
0.0
 11
347.663895
 21
605.916741
 31
0.0
  0
LINE
  5
8D
330
1F
100
AcDbEntity
  8
2
  6
Continuous
 62
    30
370
    13
100
AcDbLine
 10
439.663895
 20
680.916741
 30
0.0
 11
412.663895
 21
680.916741
 31
0.0
  0
LINE
  5
8E
330
1F
100
AcDbEntity
  8
2
  6
Continuous
 62
    30
370
    13
100
AcDbLine
 10
320.663895
 20
680.916741
 30
0.0
 11
347.663895
 21
680.916741
 31
0.0
  0
LINE
  5
8F
330
1F
100
AcDbEntity
  8
1
  6
Continuous
 62
    30
370
    18
100
AcDbLine
 10
342.694086
 20
542.416741
 30
0.0
 11
353.163895
 21
542.416741
 31
0.0
  0
LINE
  5
90
330
1F
100
AcDbEntity
  8
1
  6
Continuous
 62
    30
370
    18
100
AcDbLine
 10
417.633704
 20
542.416741
 30
0.0
 11
407.163895
 21
542.416741
 31
0.0
  0
LINE
  5
91
330
1F
100
AcDbEntity
  8
1
  6
Continuous
 62
    30
370
    13
100
AcDbLine
 10
423.451619
 20
534.94982
 30
0.0
 11
411.356169
 21
534.94982
 31
0.0
  0
LINE
  5
92
330
1F
100
AcDbEntity
  8
1
  6
Continuous
 62
    30
370
    13
100
AcDbLine
 10
336.87617
 20
534.94982
 30
0.0
 11
348.97162
 21
534.94982
 31
0.0
  0
LINE
  5
93
330
1F
100
AcDbEntity
  8
1
  6
Continuous
 62
    30
370
    18
100
AcDbLine
 10
366.163895
 20
578.400431
 30
0.0
 11
366.663895
 21
578.400431
 31
0.0
  0
LINE
  5
94
330
1F
100
AcDbEntity
  8
1
  6
Continuous
 62
    30
370
    18
100
AcDbLine
 10
366.163895
 20
578.682112
 30
0.0
 11
366.663895
 21
578.682112
 31
0.0
  0
LINE
  5
95
330
1F
100
AcDbEntity
  8
1
  6
Continuous
 62
    30
370
    18
100
AcDbLine
 10
394.163895
 20
588.549922
 30
0.0
 11
394.163895
 21
586.760975
 31
0.0
  0
LINE
  5
96
330
1F
100
AcDbEntity
  8
1
  6
Continuous
 62
    30
370
    18
100
AcDbLine
 10
394.163895
 20
586.760543
 30
0.0
 11
393.663895
 21
586.760543
 31
0.0
  0
LINE
  5
97
330
1F
100
AcDbEntity
  8
1
  6
Continuous
 62
    30
370
    18
100
AcDbLine
 10
394.163895
 20
586.760176
 30
0.0
 11
394.163895
 21
586.759236
 31
0.0
  0
LINE
  5
98
330
1F
100
AcDbEntity
  8
1
  6
Continuous
 62
    30
370
    18
100
AcDbLine
 10
394.163895
 20
586.760176
 30
0.0
 11
393.663895
 21
586.760176
 31
0.0
  0
LINE
  5
99
330
1F
100
AcDbEntity
  8
1
  6
Continuous
 62
    30
370
    18
100
AcDbLine
 10
394.163895
 20
586.75923
 30
0.0
 11
393.663895
 21
586.75923
 31
0.0
  0
LINE
  5
9A
330
1F
100
AcDbEntity
  8
1
  6
Continuous
 62
    30
370
    18
100
AcDbLine
 10
394.163895
 20
586.758843
 30
0.0
 11
394.163895
 21
586.757907
 31
0.0
  0
LINE
  5
9B
330
1F
100
AcDbEntity
  8
1
  6
Continuous
 62
    30
370
    18
100
AcDbLine
 10
394.163895
 20
586.758843
 30
0.0
 11
393.663895
 21
586.758843
 31
0.0
  0
LINE
  5
9C
330
1F
100
AcDbEntity
  8
1
  6
Continuous
 62
    30
370
    18
100
AcDbLine
 10
394.163895
 20
586.757892
 30
0.0
 11
393.663895
 21
586.757892
 31
0.0
  0
LINE
  5
9D
330
1F
100
AcDbEntity
  8
1
  6
Continuous
 62
    30
370
    18
100
AcDbLine
 10
394.163895
 20
586.757502
 30
0.0
 11
393.663895
 21
586.757502
 31
0.0
  0
LINE
  5
9E
330
1F
100
AcDbEntity
  8
1
  6
Continuous
 62
    30
370
    18
100
AcDbLine
 10
366.163895
 20
578.873197
 30
0.0
 11
366.663895
 21
578.873197
 31
0.0
  0
LINE
  5
9F
330
1F
100
AcDbEntity
  8
1
  6
Continuous
 62
    30
370
    18
100
AcDbLine
 10
366.163895
 20
588.549922
 30
0.0
 11
366.163895
 21
587.736291
 31
0.0
  0
LINE
  5
A0
330
1F
100
AcDbEntity
  8
1
  6
Continuous
 62
    30
370
    13
100
AcDbLine
 10
394.163895
 20
584.800249
 30
0.0
 11
393.663895
 21
584.800249
 31
0.0
  0
LINE
  5
A1
330
1F
100
AcDbEntity
  8
1
  6
Continuous
 62
    30
370
    18
100
AcDbLine
 10
366.163895
 20
579.280673
 30
0.0
 11
366.663895
 21
579.280673
 31
0.0
  0
LINE
  5
A2
330
1F
100
AcDbEntity
  8
1
  6
Continuous
 62
    30
370
    18
100
AcDbLine
 10
366.163895
 20
584.234029
 30
0.0
 11
366.663895
 21
584.234029
 31
0.0
  0
LINE
  5
A3
330
1F
100
AcDbEntity
  8
1
  6
Continuous
 62
    30
370
    18
100
AcDbLine
 10
366.163895
 20
583.974704
 30
0.0
 11
366.663895
 21
583.974704
 31
0.0
  0
LINE
  5
A4
330
1F
100
AcDbEntity
  8
1
  6
Continuous
 62
    30
370
    18
100
AcDbLine
 10
394.163895
 20
578.400431
 30
0.0
 11
393.663895
 21
578.400431
 31
0.0
  0
LINE
  5
A5
330
1F
100
AcDbEntity
  8
1
  6
Continuous
 62
    30
370
    18
100
AcDbLine
 10
394.163895
 20
583.972146
 30
0.0
 11
393.663895
 21
583.972146
 31
0.0
  0
LINE
  5
A6
330
1F
100
AcDbEntity
  8
1
  6
Continuous
 62
    30
370
    18
100
AcDbLine
 10
394.163895
 20
584.228594
 30
0.0
 11
393.663895
 21
584.228594
 31
0.0
  0
LINE
  5
A7
330
1F
100
AcDbEntity
  8
1
  6
Continuous
 62
    30
370
    18
100
AcDbLine
 10
366.163895
 20
587.736264
 30
0.0
 11
366.163895
 21
586.836264
 31
0.0
  0
LINE
  5
A8
330
1F
100
AcDbEntity
  8
1
  6
Continuous
 62
    30
370
    18
100
AcDbLine
 10
366.163895
 20
586.836264
 30
0.0
 11
366.163895
 21
586.757814
 31
0.0
  0
LINE
  5
A9
330
1F
100
AcDbEntity
  8
1
  6
Continuous
 62
    30
370
    18
100
AcDbLine
 10
366.163895
 20
586.760971
 30
0.0
 11
366.163895
 21
585.860971
 31
0.0
  0
LINE
  5
AA
330
1F
100
AcDbEntity
  8
1
  6
Continuous
 62
    30
370
    18
100
AcDbLine
 10
366.163895
 20
585.860971
 30
0.0
 11
366.163895
 21
584.960971
 31
0.0
  0
LINE
  5
AB
330
1F
100
AcDbEntity
  8
1
  6
Continuous
 62
    30
370
    18
100
AcDbLine
 10
366.663895
 20
590.707325
 30
0.0
 11
366.663895
 21
555.916741
 31
0.0
  0
LINE
  5
AC
330
1F
100
AcDbEntity
  8
1
  6
Continuous
 62
    30
370
    13
100
AcDbLine
 10
371.538895
 20
556.591741
 30
0.0
 11
371.538895
 21
596.600912
 31
0.0
  0
LINE
  5
AD
330
1F
100
AcDbEntity
  8
1
  6
Continuous
 62
    30
370
    18
100
AcDbLine
 10
393.663895
 20
590.707325
 30
0.0
 11
393.663895
 21
555.916741
 31
0.0
  0
LINE
  5
AE
330
1F
100
AcDbEntity
  8
1
  6
Continuous
 62
    30
370
    13
100
AcDbLine
 10
388.788895
 20
556.591741
 30
0.0
 11
388.788895
 21
596.600912
 31
0.0
  0
LINE
  5
AF
330
1F
100
AcDbEntity
  8
1
  6
Continuous
 62
    30
370
    18
100
AcDbLine
 10
421.300102
 20
526.416741
 30
0.0
 11
339.027688
 21
526.416741
 31
0.0
  0
LINE
  5
B0
330
1F
100
AcDbEntity
  8
1
  6
Continuous
 62
    30
370
    13
100
AcDbLine
 10
395.9424
 20
540.17035
 30
0.0
 11
364.385389
 21
540.17035
 31
0.0
  0
LINE
  5
B1
330
1F
100
AcDbEntity
  8
1
  6
Continuous
 62
   252
370
    18
100
AcDbLine
 10
421.300102
 20
526.416741
 30
0.0
 11
421.094691
 21
526.416741
 31
0.0
  0
LINE
  5
B2
330
1F
100
AcDbEntity
  8
1
  6
Continuous
 62
   252
370
    18
100
AcDbLine
 10
339.233099
 20
526.416741
 30
0.0
 11
339.027688
 21
526.416741
 31
0.0
  0
LINE
  5
B3
330
1F
100
AcDbEntity
  8
1
  6
Continuous
 62
   252
370
    18
100
AcDbLine
 10
357.163895
 20
409.416741
 30
0.0
 11
380.163895
 21
409.416741
 31
0.0
  0
LINE
  5
B4
330
1F
100
AcDbEntity
  8
1
  6
Continuous
 62
   252
370
    18
100
AcDbLine
 10
380.163895
 20
409.416741
 30
0.0
 11
403.163895
 21
409.416741
 31
0.0
  0
LINE
  5
B5
330
1F
100
AcDbEntity
  8
1
  6
Continuous
 62
   252
370
    18
100
AcDbLine
 10
404.163895
 20
410.416741
 30
0.0
 11
380.163895
 21
410.416741
 31
0.0
  0
LINE
  5
B6
330
1F
100
AcDbEntity
  8
1
  6
Continuous
 62
   252
370
    18
100
AcDbLine
 10
380.163895
 20
410.416741
 30
0.0
 11
356.163895
 21
410.416741
 31
0.0
  0
LINE
  5
B7
330
1F
100
AcDbEntity
  8
1
  6
Continuous
 62
   252
370
    13
100
AcDbLine
 10
404.163895
 20
476.416741
 30
0.0
 11
356.163895
 21
476.416741
 31
0.0
  0
LINE
  5
B8
330
1F
100
AcDbEntity
  8
1
  6
Continuous
 62
   252
370
    18
100
AcDbLine
 10
339.233099
 20
493.750074
 30
0.0
 11
339.233099
 21
526.416741
 31
0.0
  0
LINE
  5
B9
330
1F
100
AcDbEntity
  8
1
  6
Continuous
 62
   252
370
    18
100
AcDbLine
 10
421.094691
 20
526.416741
 30
0.0
 11
421.094691
 21
493.750074
 31
0.0
  0
LINE
  5
BA
330
1F
100
AcDbEntity
  8
1
  6
Continuous
 62
   252
370
    18
100
AcDbLine
 10
404.185004
 20
526.416741
 30
0.0
 11
397.073581
 21
526.416741
 31
0.0
  0
LINE
  5
BB
330
1F
100
AcDbEntity
  8
1
  6
Continuous
 62
   252
370
    18
100
AcDbLine
 10
404.185004
 20
493.750074
 30
0.0
 11
404.185004
 21
526.416741
 31
0.0
  0
LINE
  5
BC
330
1F
100
AcDbEntity
  8
1
  6
Continuous
 62
   252
370
    18
100
AcDbLine
 10
397.073581
 20
526.416741
 30
0.0
 11
397.073581
 21
493.750074
 31
0.0
  0
LINE
  5
BD
330
1F
100
AcDbEntity
  8
1
  6
Continuous
 62
   252
370
    18
100
AcDbLine
 10
363.254208
 20
493.750074
 30
0.0
 11
363.254208
 21
526.416741
 31
0.0
  0
LINE
  5
BE
330
1F
100
AcDbEntity
  8
1
  6
Continuous
 62
   252
370
    18
100
AcDbLine
 10
363.254208
 20
526.416741
 30
0.0
 11
356.142785
 21
526.416741
 31
0.0
  0
LINE
  5
BF
330
1F
100
AcDbEntity
  8
1
  6
Continuous
 62
   252
370
    18
100
AcDbLine
 10
356.142785
 20
526.416741
 30
0.0
 11
356.142785
 21
493.750074
 31
0.0
  0
LINE
  5
C0
330
1F
100
AcDbEntity
  8
1
  6
Continuous
 62
   252
370
    18
100
AcDbLine
 10
426.163895
 20
493.750074
 30
0.0
 11
334.163895
 21
493.750074
 31
0.0
  0
LINE
  5
C1
330
1F
100
AcDbEntity
  8
1
  6
Continuous
 62
   252
370
    13
100
AcDbLine
 10
426.163895
 20
478.416741
 30
0.0
 11
334.163895
 21
478.416741
 31
0.0
  0
LINE
  5
C2
330
1F
100
AcDbEntity
  8
1
  6
Continuous
 62
   252
370
    18
100
AcDbLine
 10
425.163895
 20
477.416741
 30
0.0
 11
335.163895
 21
477.416741
 31
0.0
  0
LINE
  5
C3
330
1F
100
AcDbEntity
  8
2
  6
Continuous
 62
    30
370
    18
100
AcDbLine
 10
825.047911
 20
734.916741
 30
0.0
 11
825.047911
 21
780.916741
 31
0.0
  0
LINE
  5
C4
330
1F
100
AcDbEntity
  8
2
  6
Continuous
 62
    30
370
    18
100
AcDbLine
 10
798.047911
 20
780.916741
 30
0.0
 11
798.047911
 21
734.916741
 31
0.0
  0
LINE
  5
C5
330
1F
100
AcDbEntity
  8
2
  6
Continuous
 62
    30
370
    18
100
AcDbLine
 10
798.047911
 20
659.916741
 30
0.0
 11
798.047911
 21
613.916741
 31
0.0
  0
LINE
  5
C6
330
1F
100
AcDbEntity
  8
2
  6
Continuous
 62
    30
370
    18
100
AcDbLine
 10
825.047911
 20
613.916741
 30
0.0
 11
825.047911
 21
659.916741
 31
0.0
  0
LINE
  5
C7
330
1F
100
AcDbEntity
  8
2
  6
Continuous
 62
    30
370
    18
100
AcDbLine
 10
825.047911
 20
659.916741
 30
0.0
 11
825.047911
 21
734.916741
 31
0.0
  0
LINE
  5
C8
330
1F
100
AcDbEntity
  8
2
  6
Continuous
 62
    30
370
    18
100
AcDbLine
 10
798.047911
 20
734.916741
 30
0.0
 11
798.047911
 21
659.916741
 31
0.0
  0
LINE
  5
C9
330
1F
100
AcDbEntity
  8
1
  6
Continuous
 62
    30
370
    18
100
AcDbLine
 10
766.94389
 20
594.17035
 30
0.0
 11
770.411704
 21
580.416741
 31
0.0
  0
LINE
  5
CA
330
1F
100
AcDbEntity
  8
1
  6
Continuous
 62
    30
370
    18
100
AcDbLine
 10
852.684117
 20
580.416741
 30
0.0
 11
856.151932
 21
594.17035
 31
0.0
  0
LINE
  5
CB
330
1F
100
AcDbEntity
  8
1
  6
Continuous
 62
   252
370
    18
100
AcDbLine
 10
835.547911
 20
464.416741
 30
0.0
 11
835.547911
 21
530.416741
 31
0.0
  0
LINE
  5
CC
330
1F
100
AcDbEntity
  8
1
  6
Continuous
 62
   252
370
    18
100
AcDbLine
 10
787.547911
 20
530.416741
 30
0.0
 11
787.547911
 21
464.416741
 31
0.0
  0
LINE
  5
CD
330
1F
100
AcDbEntity
  8
1
  6
Continuous
 62
   252
370
    18
100
AcDbLine
 10
834.547911
 20
463.416741
 30
0.0
 11
835.547911
 21
464.416741
 31
0.0
  0
LINE
  5
CE
330
1F
100
AcDbEntity
  8
1
  6
Continuous
 62
   252
370
    18
100
AcDbLine
 10
787.547911
 20
464.416741
 30
0.0
 11
788.547911
 21
463.416741
 31
0.0
  0
LINE
  5
CF
330
1F
100
AcDbEntity
  8
1
  6
Continuous
 62
   252
370
    18
100
AcDbLine
 10
765.547911
 20
547.750074
 30
0.0
 11
765.547911
 21
532.416741
 31
0.0
  0
LINE
  5
D0
330
1F
100
AcDbEntity
  8
1
  6
Continuous
 62
   252
370
    18
100
AcDbLine
 10
857.547911
 20
532.416741
 30
0.0
 11
857.547911
 21
547.750074
 31
0.0
  0
LINE
  5
D1
330
1F
100
AcDbEntity
  8
2
  6
Continuous
 62
    30
370
    13
100
AcDbLine
 10
798.047911
 20
659.916741
 30
0.0
 11
825.047911
 21
659.916741
 31
0.0
  0
LINE
  5
D2
330
1F
100
AcDbEntity
  8
2
  6
Continuous
 62
    30
370
    13
100
AcDbLine
 10
798.047911
 20
734.916741
 30
0.0
 11
825.047911
 21
734.916741
 31
0.0
  0
LINE
  5
D3
330
1F
100
AcDbEntity
  8
1
  6
Continuous
 62
    30
370
    13
100
AcDbLine
 10
850.579949
 20
609.916741
 30
0.0
 11
856.434754
 21
610.591741
 31
0.0
  0
LINE
  5
D4
330
1F
100
AcDbEntity
  8
1
  6
Continuous
 62
    30
370
    13
100
AcDbLine
 10
772.515873
 20
609.916741
 30
0.0
 11
766.661067
 21
610.591741
 31
0.0
  0
LINE
  5
D5
330
1F
100
AcDbEntity
  8
1
  6
Continuous
 62
    30
370
    18
100
AcDbLine
 10
785.567407
 20
596.416741
 30
0.0
 11
837.528414
 21
596.416741
 31
0.0
  0
LINE
  5
D6
330
1F
100
AcDbEntity
  8
1
  6
Continuous
 62
    30
370
    13
100
AcDbLine
 10
841.562392
 20
588.94982
 30
0.0
 11
781.533429
 21
588.94982
 31
0.0
  0
LINE
  5
D7
330
1F
100
AcDbEntity
  8
1
  6
Continuous
 62
    30
370
    13
100
AcDbLine
 10
772.515873
 20
609.916741
 30
0.0
 11
790.141136
 21
609.916741
 31
0.0
  0
LINE
  5
D8
330
1F
100
AcDbEntity
  8
1
  6
Continuous
 62
    30
370
    13
100
AcDbLine
 10
832.954685
 20
609.916741
 30
0.0
 11
850.579949
 21
609.916741
 31
0.0
  0
LINE
  5
D9
330
1F
100
AcDbEntity
  8
1
  6
Continuous
 62
    30
370
    13
100
AcDbLine
 10
796.11512
 20
610.47488
 30
0.0
 11
790.141136
 21
609.916741
 31
0.0
  0
LINE
  5
DA
330
1F
100
AcDbEntity
  8
1
  6
Continuous
 62
    30
370
    13
100
AcDbLine
 10
826.980702
 20
610.47488
 30
0.0
 11
832.954685
 21
609.916741
 31
0.0
  0
LINE
  5
DB
330
1F
100
AcDbEntity
  8
1
  6
Continuous
 62
    30
370
    18
100
AcDbLine
 10
770.411704
 20
580.416741
 30
0.0
 11
852.684117
 21
580.416741
 31
0.0
  0
LINE
  5
DC
330
1F
100
AcDbEntity
  8
1
  6
Continuous
 62
    30
370
    13
100
AcDbLine
 10
766.94389
 20
594.17035
 30
0.0
 11
769.827922
 21
594.17035
 31
0.0
  0
LINE
  5
DD
330
1F
100
AcDbEntity
  8
1
  6
Continuous
 62
    30
370
    13
100
AcDbLine
 10
856.151932
 20
594.17035
 30
0.0
 11
853.267899
 21
594.17035
 31
0.0
  0
LINE
  5
DE
330
1F
100
AcDbEntity
  8
1
  6
Continuous
 62
   252
370
    18
100
AcDbLine
 10
834.547911
 20
463.416741
 30
0.0
 11
788.547911
 21
463.416741
 31
0.0
  0
LINE
  5
DF
330
1F
100
AcDbEntity
  8
1
  6
Continuous
 62
   252
370
    18
100
AcDbLine
 10
835.547911
 20
464.416741
 30
0.0
 11
787.547911
 21
464.416741
 31
0.0
  0
LINE
  5
E0
330
1F
100
AcDbEntity
  8
1
  6
Continuous
 62
   252
370
    13
100
AcDbLine
 10
835.547911
 20
530.416741
 30
0.0
 11
787.547911
 21
530.416741
 31
0.0
  0
LINE
  5
E1
330
1F
100
AcDbEntity
  8
1
  6
Continuous
 62
   252
370
    18
100
AcDbLine
 10
778.153693
 20
580.416741
 30
0.0
 11
774.047911
 21
580.416741
 31
0.0
  0
LINE
  5
E2
330
1F
100
AcDbEntity
  8
1
  6
Continuous
 62
   252
370
    18
100
AcDbLine
 10
774.047911
 20
580.416741
 30
0.0
 11
774.047911
 21
547.750074
 31
0.0
  0
LINE
  5
E3
330
1F
100
AcDbEntity
  8
1
  6
Continuous
 62
   252
370
    18
100
AcDbLine
 10
849.047911
 20
580.416741
 30
0.0
 11
844.942129
 21
580.416741
 31
0.0
  0
LINE
  5
E4
330
1F
100
AcDbEntity
  8
1
  6
Continuous
 62
   252
370
    18
100
AcDbLine
 10
849.047911
 20
547.750074
 30
0.0
 11
849.047911
 21
580.416741
 31
0.0
  0
LINE
  5
E5
330
1F
100
AcDbEntity
  8
1
  6
Continuous
 62
   252
370
    18
100
AcDbLine
 10
844.942129
 20
580.416741
 30
0.0
 11
844.942129
 21
547.750074
 31
0.0
  0
LINE
  5
E6
330
1F
100
AcDbEntity
  8
1
  6
Continuous
 62
   252
370
    18
100
AcDbLine
 10
778.153693
 20
547.750074
 30
0.0
 11
778.153693
 21
580.416741
 31
0.0
  0
LINE
  5
E7
330
1F
100
AcDbEntity
  8
1
  6
Continuous
 62
   252
370
    18
100
AcDbLine
 10
815.653693
 20
547.750074
 30
0.0
 11
815.653693
 21
580.416741
 31
0.0
  0
LINE
  5
E8
330
1F
100
AcDbEntity
  8
1
  6
Continuous
 62
   252
370
    18
100
AcDbLine
 10
815.653693
 20
580.416741
 30
0.0
 11
807.442129
 21
580.416741
 31
0.0
  0
LINE
  5
E9
330
1F
100
AcDbEntity
  8
1
  6
Continuous
 62
   252
370
    18
100
AcDbLine
 10
807.442129
 20
580.416741
 30
0.0
 11
807.442129
 21
547.750074
 31
0.0
  0
LINE
  5
EA
330
1F
100
AcDbEntity
  8
1
  6
Continuous
 62
   252
370
    18
100
AcDbLine
 10
857.547911
 20
547.750074
 30
0.0
 11
765.547911
 21
547.750074
 31
0.0
  0
LINE
  5
EB
330
1F
100
AcDbEntity
  8
1
  6
Continuous
 62
   252
370
    13
100
AcDbLine
 10
765.547911
 20
532.416741
 30
0.0
 11
857.547911
 21
532.416741
 31
0.0
  0
LINE
  5
EC
330
1F
100
AcDbEntity
  8
1
  6
Continuous
 62
   252
370
    18
100
AcDbLine
 10
856.547911
 20
531.416741
 30
0.0
 11
766.547911
 21
531.416741
 31
0.0
  0
LINE
  5
ED
330
1F
100
AcDbEntity
  8
2
  6
Continuous
 62
    30
370
    18
100
AcDbLine
 10
334.163895
 20
134.340966
 30
0.0
 11
426.163895
 21
134.340966
 31
0.0
  0
LINE
  5
EE
330
1F
100
AcDbEntity
  8
2
  6
Continuous
 62
    30
370
    18
100
AcDbLine
 10
426.163895
 20
161.340966
 30
0.0
 11
334.163895
 21
161.340966
 31
0.0
  0
LINE
  5
EF
330
1F
100
AcDbEntity
  8
1
  6
Continuous
 62
    30
370
    18
100
AcDbLine
 10
394.163895
 20
162.840966
 30
0.0
 11
393.663895
 21
162.840966
 31
0.0
  0
LINE
  5
F0
330
1F
100
AcDbEntity
  8
1
  6
Continuous
 62
    30
370
    18
100
AcDbLine
 10
366.163895
 20
132.840966
 30
0.0
 11
366.663895
 21
132.840966
 31
0.0
  0
LINE
  5
F1
330
1F
100
AcDbEntity
  8
1
  6
Continuous
 62
    30
370
    13
100
AcDbLine
 10
348.840414
 20
177.9817
 30
0.0
 11
353.163895
 21
173.82147
 31
0.0
  0
LINE
  5
F2
330
1F
100
AcDbEntity
  8
1
  6
Continuous
 62
    30
370
    13
100
AcDbLine
 10
411.487376
 20
117.700233
 30
0.0
 11
407.163895
 21
121.860463
 31
0.0
  0
LINE
  5
F3
330
1F
100
AcDbEntity
  8
1
  6
Continuous
 62
    30
370
    13
100
AcDbLine
 10
348.840414
 20
117.700233
 30
0.0
 11
353.163895
 21
121.860463
 31
0.0
  0
LINE
  5
F4
330
1F
100
AcDbEntity
  8
1
  6
Continuous
 62
    30
370
    13
100
AcDbLine
 10
411.487376
 20
177.9817
 30
0.0
 11
407.163895
 21
173.82147
 31
0.0
  0
LINE
  5
F5
330
1F
100
AcDbEntity
  8
1
  6
Continuous
 62
    30
370
    13
100
AcDbLine
 10
353.163895
 20
121.860463
 30
0.0
 11
353.163895
 21
134.341253
 31
0.0
  0
LINE
  5
F6
330
1F
100
AcDbEntity
  8
1
  6
Continuous
 62
    30
370
    13
100
AcDbLine
 10
353.163895
 20
161.340679
 30
0.0
 11
353.163895
 21
173.82147
 31
0.0
  0
LINE
  5
F7
330
1F
100
AcDbEntity
  8
1
  6
Continuous
 62
    30
370
    18
100
AcDbLine
 10
394.163895
 20
162.840966
 30
0.0
 11
394.163895
 21
161.340962
 31
0.0
  0
LINE
  5
F8
330
1F
100
AcDbEntity
  8
1
  6
Continuous
 62
    30
370
    18
100
AcDbLine
 10
366.163895
 20
132.840966
 30
0.0
 11
366.163895
 21
134.34097
 31
0.0
  0
LINE
  5
F9
330
1F
100
AcDbEntity
  8
1
  6
Continuous
 62
    30
370
    18
100
AcDbLine
 10
366.663895
 20
108.808928
 30
0.0
 11
366.663895
 21
134.341844
 31
0.0
  0
LINE
  5
FA
330
1F
100
AcDbEntity
  8
1
  6
Continuous
 62
    30
370
    18
100
AcDbLine
 10
366.663895
 20
161.340088
 30
0.0
 11
366.663895
 21
186.873004
 31
0.0
  0
LINE
  5
FB
330
1F
100
AcDbEntity
  8
1
  6
Continuous
 62
    30
370
    13
100
AcDbLine
 10
371.538895
 20
192.72781
 30
0.0
 11
371.538895
 21
161.340349
 31
0.0
  0
LINE
  5
FC
330
1F
100
AcDbEntity
  8
1
  6
Continuous
 62
    30
370
    13
100
AcDbLine
 10
371.538895
 20
134.341583
 30
0.0
 11
371.538895
 21
102.954122
 31
0.0
  0
LINE
  5
FD
330
1F
100
AcDbEntity
  8
1
  6
Continuous
 62
    30
370
    13
100
AcDbLine
 10
407.163895
 20
134.341253
 30
0.0
 11
407.163895
 21
121.860463
 31
0.0
  0
LINE
  5
FE
330
1F
100
AcDbEntity
  8
1
  6
Continuous
 62
    30
370
    13
100
AcDbLine
 10
407.163895
 20
173.82147
 30
0.0
 11
407.163895
 21
161.340679
 31
0.0
  0
LINE
  5
FF
330
1F
100
AcDbEntity
  8
1
  6
Continuous
 62
    30
370
    18
100
AcDbLine
 10
393.663895
 20
186.873004
 30
0.0
 11
393.663895
 21
161.340088
 31
0.0
  0
LINE
  5
100
330
1F
100
AcDbEntity
  8
1
  6
Continuous
 62
    30
370
    18
100
AcDbLine
 10
393.663895
 20
134.341844
 30
0.0
 11
393.663895
 21
108.808928
 31
0.0
  0
LINE
  5
101
330
1F
100
AcDbEntity
  8
1
  6
Continuous
 62
    30
370
    13
100
AcDbLine
 10
388.788895
 20
102.954122
 30
0.0
 11
388.788895
 21
134.341583
 31
0.0
  0
LINE
  5
102
330
1F
100
AcDbEntity
  8
1
  6
Continuous
 62
    30
370
    13
100
AcDbLine
 10
388.788895
 20
161.340349
 30
0.0
 11
388.788895
 21
192.72781
 31
0.0
  0
ARC
  5
103
330
1F
100
AcDbEntity
  8
2
  6
Continuous
 62
    30
370
    18
100
AcDbCircle
 10
380.163895
 20
605.916741
 30
0.0
 40
59.49999999999999
100
AcDbArc
 50
180.0
 51
254.691563
  0
ARC
  5
104
330
1F
100
AcDbEntity
  8
2
  6
Continuous
 62
    30
370
    18
100
AcDbCircle
 10
380.163895
 20
605.916741
 30
0.0
 40
59.49999999999999
100
AcDbArc
 50
285.305625
 51
0.0
  0
ARC
  5
105
330
1F
100
AcDbEntity
  8
2
  6
Continuous
 62
    30
370
    18
100
AcDbCircle
 10
380.163895
 20
680.916741
 30
0.0
 40
59.49999999999996
100
AcDbArc
 50
0.0
 51
180.0
  0
ARC
  5
106
330
1F
100
AcDbEntity
  8
2
  6
Continuous
 62
    30
370
    18
100
AcDbCircle
 10
380.163895
 20
680.916741
 30
0.0
 40
32.49999999999996
100
AcDbArc
 50
0.0
 51
180.0
  0
ARC
  5
107
330
1F
100
AcDbEntity
  8
1
  6
Continuous
 62
    30
370
    18
100
AcDbCircle
 10
342.694086
 20
536.416741
 30
0.0
 40
6.0
100
AcDbArc
 50
90.0
 51
194.151505
  0
ARC
  5
108
330
1F
100
AcDbEntity
  8
1
  6
Continuous
 62
    30
370
    18
100
AcDbCircle
 10
417.633704
 20
536.416741
 30
0.0
 40
6.0
100
AcDbArc
 50
345.848495
 51
90.0
  0
ARC
  5
109
330
1F
100
AcDbEntity
  8
1
  6
Continuous
 62
    30
370
    18
100
AcDbCircle
 10
372.663895
 20
590.707325
 30
0.0
 40
6.0
100
AcDbArc
 50
100.806923
 51
180.0
  0
ARC
  5
10A
330
1F
100
AcDbEntity
  8
1
  6
Continuous
 62
    30
370
    18
100
AcDbCircle
 10
387.663895
 20
590.707325
 30
0.0
 40
6.0
100
AcDbArc
 50
0.0
 51
79.193077
  0
ARC
  5
10B
330
1F
100
AcDbEntity
  8
1
  6
Continuous
 62
    30
370
    18
100
AcDbCircle
 10
380.163895
 20
551.416741
 30
0.0
 40
46.00000000000002
100
AcDbArc
 50
79.193077
 51
100.806923
  0
ARC
  5
10C
330
1F
100
AcDbEntity
  8
1
  6
Continuous
 62
   252
370
    18
100
AcDbCircle
 10
355.163895
 20
476.416741
 30
0.0
 40
1.0
100
AcDbArc
 50
0.0
 51
90.0
  0
ARC
  5
10D
330
1F
100
AcDbEntity
  8
1
  6
Continuous
 62
   252
370
    18
100
AcDbCircle
 10
405.163895
 20
476.416741
 30
0.0
 40
1.0
100
AcDbArc
 50
90.0
 51
180.0
  0
ARC
  5
10E
330
1F
100
AcDbEntity
  8
1
  6
Continuous
 62
   252
370
    18
100
AcDbCircle
 10
335.163895
 20
478.416741
 30
0.0
 40
1.0
100
AcDbArc
 50
180.0
 51
270.0
  0
ARC
  5
10F
330
1F
100
AcDbEntity
  8
1
  6
Continuous
 62
   252
370
    18
100
AcDbCircle
 10
425.163895
 20
478.416741
 30
0.0
 40
1.0
100
AcDbArc
 50
270.0
 51
0.0
  0
ARC
  5
110
330
1F
100
AcDbEntity
  8
2
  6
Continuous
 62
    30
370
    18
100
AcDbCircle
 10
380.163895
 20
605.916741
 30
0.0
 40
32.49999999999999
100
AcDbArc
 50
294.541874
 51
0.0
  0
ARC
  5
111
330
1F
100
AcDbEntity
  8
2
  6
Continuous
 62
    30
370
    18
100
AcDbCircle
 10
380.163895
 20
605.916741
 30
0.0
 40
32.49999999999999
100
AcDbArc
 50
180.0
 51
245.458126
  0
ARC
  5
112
330
1F
100
AcDbEntity
  8
2
  6
Continuous
 62
    30
370
    18
100
AcDbCircle
 10
811.547911
 20
780.916741
 30
0.0
 40
13.5
100
AcDbArc
 50
0.0
 51
180.0
  0
ARC
  5
113
330
1F
100
AcDbEntity
  8
2
  6
Continuous
 62
    30
370
    18
100
AcDbCircle
 10
811.547911
 20
613.916741
 30
0.0
 40
13.5
100
AcDbArc
 50
180.0
 51
0.0
  0
ARC
  5
114
330
1F
100
AcDbEntity
  8
1
  6
Continuous
 62
    30
370
    18
100
AcDbCircle
 10
811.547911
 20
605.416741
 30
0.0
 40
46.00000000000002
100
AcDbArc
 50
0.0
 51
72.934227
  0
ARC
  5
115
330
1F
100
AcDbEntity
  8
1
  6
Continuous
 62
    30
370
    18
100
AcDbCircle
 10
811.547911
 20
605.416741
 30
0.0
 40
46.00000000000002
100
AcDbArc
 50
107.065454
 51
194.151505
  0
ARC
  5
116
330
1F
100
AcDbEntity
  8
1
  6
Continuous
 62
    30
370
    18
100
AcDbCircle
 10
811.547911
 20
605.416741
 30
0.0
 40
46.00000000000002
100
AcDbArc
 50
345.848495
 51
0.0
  0
ARC
  5
117
330
1F
100
AcDbEntity
  8
1
  6
Continuous
 62
   252
370
    18
100
AcDbCircle
 10
786.547911
 20
530.416741
 30
0.0
 40
1.0
100
AcDbArc
 50
0.0
 51
90.0
  0
ARC
  5
118
330
1F
100
AcDbEntity
  8
1
  6
Continuous
 62
   252
370
    18
100
AcDbCircle
 10
836.547911
 20
530.416741
 30
0.0
 40
1.0
100
AcDbArc
 50
90.0
 51
180.0
  0
ARC
  5
119
330
1F
100
AcDbEntity
  8
1
  6
Continuous
 62
   252
370
    18
100
AcDbCircle
 10
766.547911
 20
532.416741
 30
0.0
 40
1.0
100
AcDbArc
 50
180.0
 51
270.0
  0
ARC
  5
11A
330
1F
100
AcDbEntity
  8
1
  6
Continuous
 62
   252
370
    18
100
AcDbCircle
 10
856.547911
 20
532.416741
 30
0.0
 40
1.0
100
AcDbArc
 50
270.0
 51
0.0
  0
ARC
  5
11B
330
1F
100
AcDbEntity
  8
1
  6
Continuous
 62
    30
370
    18
100
AcDbCircle
 10
811.547911
 20
611.916741
 30
0.0
 40
15.5
100
AcDbArc
 50
354.662443
 51
29.430857
  0
ARC
  5
11C
330
1F
100
AcDbEntity
  8
1
  6
Continuous
 62
    30
370
    18
100
AcDbCircle
 10
811.547911
 20
611.916741
 30
0.0
 40
15.5
100
AcDbArc
 50
150.569143
 51
185.337557
  0
ARC
  5
11D
330
1F
100
AcDbEntity
  8
1
  6
Continuous
 62
    30
370
    13
100
AcDbCircle
 10
811.547911
 20
611.916741
 30
0.0
 40
21.5
100
AcDbArc
 50
128.894744
 51
185.337557
  0
ARC
  5
11E
330
1F
100
AcDbEntity
  8
1
  6
Continuous
 62
    30
370
    13
100
AcDbCircle
 10
811.547911
 20
611.916741
 30
0.0
 40
21.5
100
AcDbArc
 50
354.662443
 51
51.105256
  0
ARC
  5
11F
330
1F
100
AcDbEntity
  8
1
  6
Continuous
 62
    30
370
    13
100
AcDbCircle
 10
811.547911
 20
605.416741
 30
0.0
 40
45.18417173081745
100
AcDbArc
 50
107.383353
 51
173.423411
  0
ARC
  5
120
330
1F
100
AcDbEntity
  8
1
  6
Continuous
 62
    30
370
    13
100
AcDbCircle
 10
811.547911
 20
605.416741
 30
0.0
 40
45.18417173081745
100
AcDbArc
 50
6.576589
 51
72.616647
  0
ARC
  5
121
330
1F
100
AcDbEntity
  8
1
  6
Continuous
 62
    30
370
    13
100
AcDbCircle
 10
811.547911
 20
605.416741
 30
0.0
 40
39.2905841137543
100
AcDbArc
 50
6.576589
 51
69.905386
  0
ARC
  5
122
330
1F
100
AcDbEntity
  8
1
  6
Continuous
 62
    30
370
    13
100
AcDbCircle
 10
811.547911
 20
605.416741
 30
0.0
 40
39.2905841137543
100
AcDbArc
 50
110.094614
 51
173.423411
  0
ARC
  5
123
330
1F
100
AcDbEntity
  8
1
  6
Continuous
 62
    30
370
    18
100
AcDbCircle
 10
825.647911
 20
639.860971
 30
0.0
 40
0.9000000000000004
100
AcDbArc
 50
0.0
 51
131.810596
  0
ARC
  5
124
330
1F
100
AcDbEntity
  8
1
  6
Continuous
 62
    30
370
    18
100
AcDbCircle
 10
825.647911
 20
639.860971
 30
0.0
 40
0.9000000000000004
100
AcDbArc
 50
228.189404
 51
0.0
  0
ARC
  5
125
330
1F
100
AcDbEntity
  8
1
  6
Continuous
 62
    30
370
    18
100
AcDbCircle
 10
380.163895
 20
147.840966
 30
0.0
 40
43.46980873277888
100
AcDbArc
 50
316.102399
 51
341.907329
  0
ARC
  5
126
330
1F
100
AcDbEntity
  8
1
  6
Continuous
 62
    30
370
    18
100
AcDbCircle
 10
380.163895
 20
147.840966
 30
0.0
 40
43.46980873277888
100
AcDbArc
 50
18.092671
 51
43.897601
  0
ARC
  5
127
330
1F
100
AcDbEntity
  8
1
  6
Continuous
 62
    30
370
    18
100
AcDbCircle
 10
380.163895
 20
147.840966
 30
0.0
 40
43.46980873277888
100
AcDbArc
 50
136.102399
 51
161.907329
  0
ARC
  5
128
330
1F
100
AcDbEntity
  8
1
  6
Continuous
 62
    30
370
    18
100
AcDbCircle
 10
380.163895
 20
147.840966
 30
0.0
 40
43.46980873277888
100
AcDbArc
 50
198.092671
 51
223.897601
  0
ARC
  5
129
330
1F
100
AcDbEntity
  8
1
  6
Continuous
 62
    30
370
    18
100
AcDbCircle
 10
380.163895
 20
147.840966
 30
0.0
 40
46.00000000000002
100
AcDbArc
 50
270.0
 51
281.591682
  0
ARC
  5
12A
330
1F
100
AcDbEntity
  8
1
  6
Continuous
 62
    30
370
    18
100
AcDbCircle
 10
380.163895
 20
147.840966
 30
0.0
 40
46.00000000000002
100
AcDbArc
 50
78.410129
 51
101.591685
  0
ARC
  5
12B
330
1F
100
AcDbEntity
  8
1
  6
Continuous
 62
    30
370
    18
100
AcDbCircle
 10
380.163895
 20
147.840966
 30
0.0
 40
46.00000000000002
100
AcDbArc
 50
258.41013
 51
270.0
  0
ARC
  5
12C
330
1F
100
AcDbEntity
  8
2
  6
Continuous
 62
    30
370
    18
100
AcDbCircle
 10
426.163895
 20
147.840966
 30
0.0
 40
13.5
100
AcDbArc
 50
269.999999
 51
90.0
  0
ARC
  5
12D
330
1F
100
AcDbEntity
  8
2
  6
Continuous
 62
    30
370
    18
100
AcDbCircle
 10
334.163895
 20
147.840966
 30
0.0
 40
13.5
100
AcDbArc
 50
90.0
 51
270.000001
  0
ARC
  5
12E
330
1F
100
AcDbEntity
  8
1
  6
Continuous
 62
    30
370
    13
100
AcDbCircle
 10
380.163895
 20
147.840966
 30
0.0
 40
37.46980873277888
100
AcDbArc
 50
316.102399
 51
338.882509
  0
ARC
  5
12F
330
1F
100
AcDbEntity
  8
1
  6
Continuous
 62
    30
370
    13
100
AcDbCircle
 10
380.163895
 20
147.840966
 30
0.0
 40
37.46980873277888
100
AcDbArc
 50
21.117491
 51
43.897601
  0
ARC
  5
130
330
1F
100
AcDbEntity
  8
1
  6
Continuous
 62
    30
370
    13
100
AcDbCircle
 10
380.163895
 20
147.840966
 30
0.0
 40
37.46980873277888
100
AcDbArc
 50
136.102399
 51
158.882509
  0
ARC
  5
131
330
1F
100
AcDbEntity
  8
1
  6
Continuous
 62
    30
370
    13
100
AcDbCircle
 10
380.163895
 20
147.840966
 30
0.0
 40
37.46980873277888
100
AcDbArc
 50
201.117491
 51
223.897601
  0
ARC
  5
132
330
1F
100
AcDbEntity
  8
1
  6
Continuous
 62
   252
370
    18
100
AcDbCircle
 10
380.163895
 20
147.840966
 30
0.0
 40
46.0
100
AcDbArc
 50
281.5875
 51
342.928124
  0
ARC
  5
133
330
1F
100
AcDbEntity
  8
1
  6
Continuous
 62
   252
370
    18
100
AcDbCircle
 10
380.163895
 20
147.840966
 30
0.0
 40
46.0
100
AcDbArc
 50
197.06625
 51
258.406875
  0
ARC
  5
134
330
1F
100
AcDbEntity
  8
1
  6
Continuous
 62
   252
370
    18
100
AcDbCircle
 10
380.163895
 20
147.840966
 30
0.0
 40
46.0
100
AcDbArc
 50
101.593125
 51
162.933749
  0
ARC
  5
135
330
1F
100
AcDbEntity
  8
1
  6
Continuous
 62
   252
370
    18
100
AcDbCircle
 10
380.163895
 20
147.840966
 30
0.0
 40
46.0
100
AcDbArc
 50
17.071875
 51
78.4125
  0
ELLIPSE
  5
136
330
1F
100
AcDbEntity
  8
1
  6
Continuous
 62
    30
370
    13
100
AcDbEllipse
 10
353.163895
 20
536.416741
 30
0.0
 11
0.0
 21
-6.0
 31
0.0
210
0.0
220
0.0
230
1.0
 40
0.72058
 41
3.141592653589793
 42
4.959379332979556
  0
ELLIPSE
  5
137
330
1F
100
AcDbEntity
  8
1
  6
Continuous
 62
    30
370
    13
100
AcDbEllipse
 10
407.163895
 20
536.416741
 30
0.0
 11
0.0
 21
-6.0
 31
0.0
210
0.0
220
0.0
230
1.0
 40
0.72058
 41
1.32380597420003
 42
3.141592653589793
  0
ELLIPSE
  5
138
330
1F
100
AcDbEntity
  8
1
  6
Continuous
 62
    30
370
    13
100
AcDbEllipse
 10
387.663895
 20
555.916741
 30
0.0
 11
6.0
 21
0.0
 31
0.0
210
0.0
220
0.0
230
1.0
 40
0.114531
 41
0.0
 42
1.382179940619492
  0
ELLIPSE
  5
139
330
1F
100
AcDbEntity
  8
1
  6
Continuous
 62
    30
370
    13
100
AcDbEllipse
 10
393.884334
 20
541.63727
 30
0.0
 11
4.086018613488034
 21
4.39368318045684
 31
0.0
210
0.0
220
0.0
230
1.0
 40
0.4183
 41
4.766974737328612
 42
6.283185307179592
  0
ELLIPSE
  5
13A
330
1F
100
AcDbEntity
  8
1
  6
Continuous
 62
    30
370
    13
100
AcDbEllipse
 10
372.663895
 20
555.916741
 30
0.0
 11
-6.0
 21
0.0
 31
0.0
210
0.0
220
0.0
230
1.0
 40
0.114531
 41
4.901005366560094
 42
6.283185307179586
  0
ELLIPSE
  5
13B
330
1F
100
AcDbEntity
  8
1
  6
Continuous
 62
    30
370
    13
100
AcDbEllipse
 10
366.443455
 20
541.63727
 30
0.0
 11
4.086018613488038
 21
-4.393683180456835
 31
0.0
210
0.0
220
0.0
230
1.0
 40
0.4183
 41
3.141592653589793
 42
4.657803223440766
  0
ELLIPSE
  5
13C
330
1F
100
AcDbEntity
  8
1
  6
Continuous
 62
    30
370
    13
100
AcDbEllipse
 10
775.26966
 20
595.63727
 30
0.0
 11
4.97021882628991
 21
3.361089826052459
 31
0.0
210
0.0
220
0.0
230
1.0
 40
0.665137
 41
1.148111894262334
 42
2.664322464113309
  0
ELLIPSE
  5
13D
330
1F
100
AcDbEntity
  8
1
  6
Continuous
 62
    30
370
    13
100
AcDbEllipse
 10
847.826162
 20
595.63727
 30
0.0
 11
4.970218826289901
 21
-3.361089826052474
 31
0.0
210
0.0
220
0.0
230
1.0
 40
0.665137
 41
0.4772701894764904
 42
1.993480759327459
  0
ELLIPSE
  5
13E
330
1F
100
AcDbEntity
  8
1
  6
Continuous
 62
    30
370
    13
100
AcDbEllipse
 10
837.528414
 20
590.416741
 30
0.0
 11
0.0
 21
-6.0
 31
0.0
210
0.0
220
0.0
230
1.0
 40
0.693372
 41
1.32380597420003
 42
3.141592653589793
  0
ELLIPSE
  5
13F
330
1F
100
AcDbEntity
  8
1
  6
Continuous
 62
    30
370
    13
100
AcDbEllipse
 10
785.567407
 20
590.416741
 30
0.0
 11
0.0
 21
-6.0
 31
0.0
210
0.0
220
0.0
230
1.0
 40
0.693372
 41
3.141592653589793
 42
4.959379332979556
  0
ELLIPSE
  5
140
330
1F
100
AcDbEntity
  8
1
  6
Continuous
 62
    30
370
    13
100
AcDbEllipse
 10
366.443455
 20
184.119217
 30
0.0
 11
3.194197025921049
 21
-5.079085090801012
 31
0.0
210
0.0
220
0.0
230
1.0
 40
0.618561
 41
3.142639871027757
 42
4.341393877959069
  0
ELLIPSE
  5
141
330
1F
100
AcDbEntity
  8
1
  6
Continuous
 62
    30
370
    13
100
AcDbEllipse
 10
393.884334
 20
111.562715
 30
0.0
 11
-3.194197025921062
 21
5.079085090801004
 31
0.0
210
0.0
220
0.0
230
1.0
 40
0.618561
 41
3.142639871027753
 42
4.341393877959067
  0
ELLIPSE
  5
142
330
1F
100
AcDbEntity
  8
1
  6
Continuous
 62
    30
370
    13
100
AcDbEllipse
 10
366.443455
 20
111.562715
 30
0.0
 11
-3.19419702592107
 21
-5.079085090800999
 31
0.0
210
0.0
220
0.0
230
1.0
 40
0.618561
 41
5.083384082810313
 42
6.28197211338084
  0
ELLIPSE
  5
143
330
1F
100
AcDbEntity
  8
1
  6
Continuous
 62
    30
370
    13
100
AcDbEllipse
 10
393.884334
 20
184.119217
 30
0.0
 11
3.194197025921059
 21
5.079085090801007
 31
0.0
210
0.0
220
0.0
230
1.0
 40
0.618561
 41
5.083384082810311
 42
6.281972113380844
  0
ELLIPSE
  5
144
330
1F
100
AcDbEntity
  8
1
  6
Continuous
 62
    30
370
    13
100
AcDbEllipse
 10
372.663895
 20
108.808928
 30
0.0
 11
-6.0
 21
0.0
 31
0.0
210
0.0
220
0.0
230
1.0
 40
0.99342
 41
0.0
 42
1.382179940619493
  0
ELLIPSE
  5
145
330
1F
100
AcDbEntity
  8
1
  6
Continuous
 62
    30
370
    13
100
AcDbEllipse
 10
372.663895
 20
186.873004
 30
0.0
 11
-6.0
 21
0.0
 31
0.0
210
0.0
220
0.0
230
1.0
 40
0.99342
 41
4.901005366560093
 42
6.283185307179587
  0
ELLIPSE
  5
146
330
1F
100
AcDbEntity
  8
1
  6
Continuous
 62
    30
370
    13
100
AcDbEllipse
 10
387.663895
 20
186.873004
 30
0.0
 11
6.0
 21
0.0
 31
0.0
210
0.0
220
0.0
230
1.0
 40
0.99342
 41
0.0
 42
1.382179940619493
  0
ELLIPSE
  5
147
330
1F
100
AcDbEntity
  8
1
  6
Continuous
 62
    30
370
    13
100
AcDbEllipse
 10
387.663895
 20
108.808928
 30
0.0
 11
6.0
 21
0.0
 31
0.0
210
0.0
220
0.0
230
1.0
 40
0.99342
 41
4.901005366560094
 42
6.283185307179587
  0
SPLINE
  5
148
330
1F
100
AcDbEntity
  8
1
  6
Continuous
 62
    30
370
    18
100
AcDbSpline
210
0.0
220
0.0
230
1.0
 70
     8
 71
     3
 72
    27
 73
    23
 74
     0
 42
0.000000001
 43
0.0000000001
 40
0.0
 40
0.0
 40
0.0
 40
0.0
 40
0.1249999999999978
 40
0.1249999999999978
 40
0.2499999999999956
 40
0.2499999999999956
 40
0.3749999999999933
 40
0.3749999999999933
 40
0.4999999999999911
 40
0.4999999999999911
 40
0.5624999999999903
 40
0.5624999999999903
 40
0.5781249999999903
 40
0.5781249999999903
 40
0.5937499999999906
 40
0.6249999999999909
 40
0.6249999999999909
 40
0.7499999999999939
 40
0.7499999999999939
 40
0.8749999999999969
 40
0.8749999999999969
 40
1.0
 40
1.0
 40
1.0
 40
1.0
 10
353.1638948357409
 20
542.4167405981447
 30
0.0
 10
353.5016149215361
 20
542.4167405981447
 30
0.0
 10
353.8479838597759
 20
542.429393098233
 30
0.0
 10
354.5572689801234
 20
542.484129948314
 30
0.0
 10
354.9201888886801
 20
542.5262079045884
 30
0.0
 10
355.6616362115965
 20
542.6445055702028
 30
0.0
 10
356.0401689894708
 20
542.7207170482667
 30
0.0
 10
356.8115739681161
 20
542.9128016762801
 30
0.0
 10
357.2044541474171
 20
543.0286637310448
 30
0.0
 10
357.8031848146593
 20
543.2371645124717
 30
0.0
 10
358.004325275759
 20
543.3124589702034
 30
0.0
 10
358.2575188976475
 20
543.4144218510668
 30
0.0
 10
358.3082759170831
 20
543.4352196606633
 30
0.0
 10
358.4097481473734
 20
543.4775266094839
 30
0.0
 10
358.5619294000066
 20
543.5420669987201
 30
0.0
 10
358.713992849282
 20
543.6098786264179
 30
0.0
 10
359.2204411891765
 20
543.8433285251042
 30
0.0
 10
359.6242533361693
 20
544.0537908514519
 30
0.0
 10
360.4244441668795
 20
544.5259446620953
 30
0.0
 10
360.8208308509693
 20
544.7876302586654
 30
0.0
 10
361.6005778598927
 20
545.36647303568
 30
0.0
 10
361.9839497857412
 20
545.6836196707417
 30
0.0
 10
362.357436716089
 20
546.0309534421168
 30
0.0
  0
SPLINE
  5
149
330
1F
100
AcDbEntity
  8
1
  6
Continuous
 62
    30
370
    18
100
AcDbSpline
210
0.0
220
0.0
230
1.0
 70
     8
 71
     3
 72
    31
 73
    27
 74
     0
 42
0.000000001
 43
0.0000000001
 40
0.0
 40
0.0
 40
0.0
 40
0.0
 40
0.1249999999999998
 40
0.1249999999999998
 40
0.2499999999999995
 40
0.2499999999999995
 40
0.3749999999999992
 40
0.3749999999999992
 40
0.4062499999999984
 40
0.4062499999999984
 40
0.4218749999999984
 40
0.4218749999999984
 40
0.4374999999999983
 40
0.4999999999999985
 40
0.4999999999999985
 40
0.624999999999999
 40
0.624999999999999
 40
0.7499999999999994
 40
0.7499999999999994
 40
0.8125000000000002
 40
0.8125000000000002
 40
0.8437500000000003
 40
0.8437500000000003
 40
0.8750000000000003
 40
0.8750000000000003
 40
1.0
 40
1.0
 40
1.0
 40
1.0
 10
397.9703529553929
 20
546.0309534421168
 30
0.0
 10
398.342663754758
 20
545.6847134439815
 30
0.0
 10
398.7248731375003
 20
545.3684021492562
 30
0.0
 10
399.5023915199321
 20
544.790829480509
 30
0.0
 10
399.8977118048859
 20
544.529578376999
 30
0.0
 10
400.6959089530484
 20
544.0579869574848
 30
0.0
 10
401.0987936094964
 20
543.8476523854802
 30
0.0
 10
401.6041849002645
 20
543.6142196417932
 30
0.0
 10
401.7053542023625
 20
543.5690081611306
 30
0.0
 10
401.8571944869935
 20
543.5033618496254
 30
0.0
 10
401.9078428782856
 20
543.4818330134729
 30
0.0
 10
402.009064868169
 20
543.4395319029188
 30
0.0
 10
402.261753946736
 20
543.3357446729806
 30
0.0
 10
402.5125362340889
 20
543.2415915037551
 30
0.0
 10
403.1102603360929
 20
543.0327888376042
 30
0.0
 10
403.5031859353007
 20
542.9164406513887
 30
0.0
 10
404.2758665887703
 20
542.7232618603709
 30
0.0
 10
404.6556291712444
 20
542.6464405564592
 30
0.0
 10
405.214263878147
 20
542.5569313147304
 30
0.0
 10
405.3986440292526
 20
542.5313885595002
 30
0.0
 10
405.672350059549
 20
542.4990755970099
 30
0.0
 10
405.7631081879525
 20
542.4893051274207
 30
0.0
 10
405.9436521376086
 20
542.4716956257122
 30
0.0
 10
406.0334744223834
 20
542.4638541318475
 30
0.0
 10
406.4794836647596
 20
542.4293518692135
 30
0.0
 10
406.8265770483228
 20
542.4167405981447
 30
0.0
 10
407.163894835741
 20
542.4167405981447
 30
0.0
  0
SPLINE
  5
14A
330
1F
100
AcDbEntity
  8
1
  6
Continuous
 62
    30
370
    13
100
AcDbSpline
210
0.0
220
0.0
230
1.0
 70
     8
 71
     3
 72
    33
 73
    29
 74
     0
 42
0.000000001
 43
0.0000000001
 40
0.0
 40
0.0
 40
0.0
 40
0.0
 40
0.1250000000000024
 40
0.1250000000000024
 40
0.1406250000000026
 40
0.1406250000000026
 40
0.1562500000000028
 40
0.1875000000000032
 40
0.2500000000000038
 40
0.2500000000000038
 40
0.3750000000000046
 40
0.3750000000000046
 40
0.5000000000000054
 40
0.5000000000000054
 40
0.5625000000000054
 40
0.5625000000000054
 40
0.5781250000000056
 40
0.5781250000000056
 40
0.5937500000000056
 40
0.625000000000005
 40
0.625000000000005
 40
0.7500000000000032
 40
0.7500000000000032
 40
0.8750000000000016
 40
0.8750000000000016
 40
0.9375000000000008
 40
0.9375000000000008
 40
1.0
 40
1.0
 40
1.0
 40
1.0
 10
411.3561694041886
 20
534.9498200476719
 30
0.0
 10
410.7631200320376
 20
534.9498200476719
 30
0.0
 10
410.1562003974843
 20
534.9700576622332
 30
0.0
 10
409.4585433666567
 20
535.0188747461071
 30
0.0
 10
409.3808113892565
 20
535.0246620396925
 30
0.0
 10
409.2250906068264
 20
535.0369608884463
 30
0.0
 10
408.9910695653226
 20
535.0564991546491
 30
0.0
 10
408.44199288726
 20
535.1098155448543
 30
0.0
 10
407.9663420833893
 20
535.1690982998805
 30
0.0
 10
407.0088374223701
 20
535.3067322175336
 30
0.0
 10
406.3622204891106
 20
535.4238793873451
 30
0.0
 10
405.0551672426411
 20
535.7147437835022
 30
0.0
 10
404.3947230584125
 20
535.8884450003861
 30
0.0
 10
403.3960423739096
 20
536.1966866421453
 30
0.0
 10
403.0618169511511
 20
536.30739339643
 30
0.0
 10
402.6426538067485
 20
536.4563787932603
 30
0.0
 10
402.5587170625122
 20
536.4867196057837
 30
0.0
 10
402.3910474432445
 20
536.5483552418489
 30
0.0
 10
402.1397527553045
 20
536.6422726548203
 30
0.0
 10
401.889130138729
 20
536.7406145111961
 30
0.0
 10
401.0554103332722
 20
537.078406034074
 30
0.0
 10
400.3938099458271
 20
537.3805471847271
 30
0.0
 10
399.0867860857795
 20
538.0532425116459
 30
0.0
 10
398.4413481822328
 20
538.4237787658833
 30
0.0
 10
397.4901013295123
 20
539.0353895947859
 30
0.0
 10
397.1758462120575
 20
539.2485736518128
 30
0.0
 10
396.5539223555432
 20
539.6945104867359
 30
0.0
 10
396.2462527046354
 20
539.9272620057133
 30
0.0
 10
395.9424002678294
 20
540.1703497111872
 30
0.0
  0
SPLINE
  5
14B
330
1F
100
AcDbEntity
  8
1
  6
Continuous
 62
    30
370
    13
100
AcDbSpline
210
0.0
220
0.0
230
1.0
 70
     8
 71
     3
 72
    28
 73
    24
 74
     0
 42
0.000000001
 43
0.0000000001
 40
0.0
 40
0.0
 40
0.0
 40
0.0
 40
0.062500000000001
 40
0.062500000000001
 40
0.125000000000002
 40
0.125000000000002
 40
0.2500000000000036
 40
0.2500000000000036
 40
0.3750000000000052
 40
0.3750000000000052
 40
0.4375000000000061
 40
0.4375000000000061
 40
0.4687500000000059
 40
0.4687500000000059
 40
0.5000000000000058
 40
0.5000000000000058
 40
0.6250000000000043
 40
0.6250000000000043
 40
0.7500000000000029
 40
0.7500000000000029
 40
0.8750000000000014
 40
0.8750000000000014
 40
1.0
 40
1.0
 40
1.0
 40
1.0
 10
364.3853894036524
 20
540.1703497111872
 30
0.0
 10
364.0805796309198
 20
539.9264961188367
 30
0.0
 10
363.7719582556054
 20
539.6930675103512
 30
0.0
 10
363.1481533803577
 20
539.2459308659083
 30
0.0
 10
362.8329689476668
 20
539.0322241258078
 30
0.0
 10
361.8789812138326
 20
538.4192478472849
 30
0.0
 10
361.2317794137873
 20
538.0480703892091
 30
0.0
 10
359.9214075222981
 20
537.3745083346577
 30
0.0
 10
359.2582227387434
 20
537.0721421155267
 30
0.0
 10
358.2555441145867
 20
536.6666965934281
 30
0.0
 10
357.9199946639372
 20
536.5395750648502
 30
0.0
 10
357.4151510956239
 20
536.360568578584
 30
0.0
 10
357.2471504206638
 20
536.3030361343649
 30
0.0
 10
356.9119868634194
 20
536.1921750938542
 30
0.0
 10
356.744787485943
 20
536.1388335776027
 30
0.0
 10
355.9108304409858
 20
535.8822237778141
 30
0.0
 10
355.2502143964677
 20
535.7091799929154
 30
0.0
 10
353.9449588476385
 20
535.4198894540178
 30
0.0
 10
353.3003113081365
 20
535.303660904558
 30
0.0
 10
352.0294345221164
 20
535.1217756306818
 30
0.0
 10
351.4031993589209
 20
535.0561318391049
 30
0.0
 10
350.1713804708038
 20
534.9701489615395
 30
0.0
 10
349.5657918794033
 20
534.9498200476719
 30
0.0
 10
348.9716202672933
 20
534.9498200476719
 30
0.0
  0
SPLINE
  5
14C
330
1F
100
AcDbEntity
  8
1
  6
Continuous
 62
    30
370
    18
100
AcDbSpline
210
0.0
220
0.0
230
1.0
 70
     8
 71
     3
 72
    33
 73
    29
 74
     0
 42
0.000000001
 43
0.0000000001
 40
0.0
 40
0.0
 40
0.0
 40
0.0
 40
0.1250000000000199
 40
0.1250000000000199
 40
0.2500000000000397
 40
0.2500000000000397
 40
0.3125000000000497
 40
0.3125000000000497
 40
0.3281250000000496
 40
0.3281250000000496
 40
0.3437500000000494
 40
0.3750000000000495
 40
0.3750000000000495
 40
0.4375000000000462
 40
0.4375000000000462
 40
0.5000000000000429
 40
0.5000000000000429
 40
0.6250000000000395
 40
0.6250000000000395
 40
0.6562500000000364
 40
0.6562500000000364
 40
0.6875000000000332
 40
0.6875000000000332
 40
0.7500000000000276
 40
0.7500000000000276
 40
0.8750000000000139
 40
0.8750000000000139
 40
1.0
 40
1.0
 40
1.0
 40
1.0
 10
393.663894835741
 20
555.9167405981447
 30
0.0
 10
393.663894835741
 20
555.4292366091411
 30
0.0
 10
393.6902236285708
 20
554.9447792153502
 30
0.0
 10
393.7944992805469
 20
553.981853723589
 30
0.0
 10
393.8724466053708
 20
553.5033856414736
 30
0.0
 10
394.0286660014534
 20
552.7902436730262
 30
0.0
 10
394.0873029106834
 20
552.5532912168949
 30
0.0
 10
394.1689767912226
 20
552.2580717113199
 30
0.0
 10
394.1857476964313
 20
552.1990186474046
 30
0.0
 10
394.220053774957
 20
552.0812825725957
 30
0.0
 10
394.2725805607823
 20
551.9054944121774
 30
0.0
 10
394.3282597255943
 20
551.7321173266535
 30
0.0
 10
394.4436999238196
 20
551.3884910662316
 30
0.0
 10
394.5260986985588
 20
551.1635742510948
 30
0.0
 10
394.7012302393864
 20
550.7216975101161
 30
0.0
 10
394.7939638084915
 20
550.5047382041082
 30
0.0
 10
395.087024051449
 20
549.8653732991468
 30
0.0
 10
395.302172860691
 20
549.454447940906
 30
0.0
 10
395.5943488502183
 20
548.9590947785122
 30
0.0
 10
395.6539666261226
 20
548.8609138376371
 30
0.0
 10
395.7754347659652
 20
548.6664912297445
 30
0.0
 10
395.8369731196242
 20
548.5707467991297
 30
0.0
 10
396.0238917587354
 20
548.2877529013982
 30
0.0
 10
396.1515729442672
 20
548.1047380312187
 30
0.0
 10
396.5430590342059
 20
547.5715433527113
 30
0.0
 10
396.8152788606179
 20
547.2371622914968
 30
0.0
 10
397.3789709507998
 20
546.6063057668539
 30
0.0
 10
397.6704556814857
 20
546.3098506208596
 30
0.0
 10
397.9703529553929
 20
546.0309534421168
 30
0.0
  0
SPLINE
  5
14D
330
1F
100
AcDbEntity
  8
1
  6
Continuous
 62
    30
370
    18
100
AcDbSpline
210
0.0
220
0.0
230
1.0
 70
     8
 71
     3
 72
    39
 73
    35
 74
     0
 42
0.000000001
 43
0.0000000001
 40
0.0
 40
0.0
 40
0.0
 40
0.0
 40
0.125000000000015
 40
0.125000000000015
 40
0.2500000000000301
 40
0.2500000000000301
 40
0.3125000000000376
 40
0.3125000000000376
 40
0.328125000000038
 40
0.328125000000038
 40
0.3437500000000385
 40
0.3437500000000385
 40
0.3750000000000365
 40
0.3750000000000365
 40
0.5000000000000324
 40
0.5000000000000324
 40
0.5625000000000323
 40
0.5625000000000323
 40
0.5937500000000324
 40
0.6093750000000325
 40
0.6093750000000325
 40
0.6250000000000325
 40
0.6250000000000325
 40
0.687500000000034
 40
0.687500000000034
 40
0.7031250000000335
 40
0.7031250000000335
 40
0.7187500000000331
 40
0.7187500000000331
 40
0.7500000000000286
 40
0.7500000000000286
 40
0.8750000000000143
 40
0.8750000000000143
 40
1.0
 40
1.0
 40
1.0
 40
1.0
 10
362.357436716089
 20
546.0309534421168
 30
0.0
 10
362.6547508616309
 20
546.3074483742369
 30
0.0
 10
362.9442881986496
 20
546.6016514501798
 30
0.0
 10
363.5053061305267
 20
547.2286917608143
 30
0.0
 10
363.7767999183832
 20
547.5615056192701
 30
0.0
 10
364.1680538579134
 20
548.0932560371523
 30
0.0
 10
364.2958002039353
 20
548.2759418990681
 30
0.0
 10
364.4518158521841
 20
548.5116049312962
 30
0.0
 10
364.4828353846909
 20
548.5591032673358
 30
0.0
 10
364.5444980704376
 20
548.6548460618142
 30
0.0
 10
364.5750974696731
 20
548.7030234773181
 30
0.0
 10
364.6660152783502
 20
548.8481999898166
 30
0.0
 10
364.7255266508158
 20
548.9459566426733
 30
0.0
 10
365.0174956058187
 20
549.4396505352411
 30
0.0
 10
365.2332404616555
 20
549.8502709098528
 30
0.0
 10
365.5279035763683
 20
550.4911920138192
 30
0.0
 10
365.6212890482926
 20
550.7090069343037
 30
0.0
 10
365.7537288913855
 20
551.0422797488368
 30
0.0
 10
365.8180379225342
 20
551.2105549656787
 30
0.0
 10
365.8793953030504
 20
551.3813545583765
 30
0.0
 10
365.9196337938537
 20
551.4957902143068
 30
0.0
 10
365.9394312426363
 20
551.5533275329459
 30
0.0
 10
366.0364871962284
 20
551.8417398737226
 30
0.0
 10
366.1080941932793
 20
552.0751582170418
 30
0.0
 10
366.1899025213313
 20
552.3703513023473
 30
0.0
 10
366.2058788910719
 20
552.4295610619722
 30
0.0
 10
366.2370560811238
 20
552.5483249068698
 30
0.0
 10
366.2522495269179
 20
552.6078537142084
 30
0.0
 10
366.2965321715298
 20
552.7864242662686
 30
0.0
 10
366.3243687543145
 20
552.9056189823033
 30
0.0
 10
366.4552236605786
 20
553.5023229831572
 30
0.0
 10
366.533332582115
 20
553.9820179670346
 30
0.0
 10
366.6376694061341
 20
554.9459593973957
 30
0.0
 10
366.6638948357408
 20
555.4302060948785
 30
0.0
 10
366.6638948357408
 20
555.9167405981447
 30
0.0
  0
SPLINE
  5
14E
330
1F
100
AcDbEntity
  8
1
  6
Continuous
 62
    30
370
    13
100
AcDbSpline
210
0.0
220
0.0
230
1.0
 70
     8
 71
     3
 72
    34
 73
    30
 74
     0
 42
0.000000001
 43
0.0000000001
 40
0.0
 40
0.0
 40
0.0
 40
0.0
 40
0.0625000000000027
 40
0.1250000000000053
 40
0.1875000000000079
 40
0.2500000000000106
 40
0.2500000000000106
 40
0.281250000000012
 40
0.2968750000000127
 40
0.2968750000000127
 40
0.3125000000000133
 40
0.3125000000000133
 40
0.375000000000012
 40
0.375000000000012
 40
0.4375000000000107
 40
0.5000000000000094
 40
0.5625000000000081
 40
0.6250000000000068
 40
0.6250000000000068
 40
0.6562500000000071
 40
0.6718750000000071
 40
0.6718750000000071
 40
0.6875000000000071
 40
0.6875000000000071
 40
0.7500000000000049
 40
0.7500000000000049
 40
0.8750000000000024
 40
0.8750000000000024
 40
1.0
 40
1.0
 40
1.0
 40
1.0
 10
371.5388948357408
 20
556.5917405981447
 30
0.0
 10
371.5388948357408
 20
556.1955220284614
 30
0.0
 10
371.5179082953453
 20
555.4053522377048
 30
0.0
 10
371.4242755750164
 20
554.2268214463543
 30
0.0
 10
371.2687701179062
 20
553.05498978072
 30
0.0
 10
371.1236947559756
 20
552.2782531408428
 30
0.0
 10
370.9991705198324
 20
551.6974026833108
 30
0.0
 10
370.9329768819088
 20
551.4074031731485
 30
0.0
 10
370.8608305909219
 20
551.1180480520984
 30
0.0
 10
370.8114026850176
 20
550.9252886254208
 30
0.0
 10
370.7860505475659
 20
550.8290902659542
 30
0.0
 10
370.6564304560695
 20
550.3501593220709
 30
0.0
 10
370.543306580343
 20
549.97248445458
 30
0.0
 10
370.2989106810063
 20
549.2276830719121
 30
0.0
 10
370.0363653771177
 20
548.493430788555
 30
0.0
 10
369.5896802709906
 20
547.4228595490601
 30
0.0
 10
369.0912485149347
 20
546.3825428273318
 30
0.0
 10
368.724933232687
 20
545.7089742940353
 30
0.0
 10
368.43751732796
 20
545.2112775193727
 30
0.0
 10
368.290638104424
 20
544.9642999584454
 30
0.0
 10
368.1390041935315
 20
544.7201349532728
 30
0.0
 10
368.0368576802433
 20
544.5579845823022
 30
0.0
 10
367.9852090760031
 20
544.4771510976088
 30
0.0
 10
367.7250478254159
 20
544.0756674066695
 30
0.0
 10
367.5107229558016
 20
543.7629191914497
 30
0.0
 10
366.850227547875
 20
542.8488005495151
 30
0.0
 10
366.3865819703147
 20
542.2714893298835
 30
0.0
 10
365.4169827803593
 20
541.1766622426823
 30
0.0
 10
364.9110123270103
 20
540.6591662599246
 30
0.0
 10
364.3853894036524
 20
540.1703497111872
 30
0.0
  0
SPLINE
  5
14F
330
1F
100
AcDbEntity
  8
1
  6
Continuous
 62
    30
370
    13
100
AcDbSpline
210
0.0
220
0.0
230
1.0
 70
     8
 71
     3
 72
    34
 73
    30
 74
     0
 42
0.000000001
 43
0.0000000001
 40
0.0
 40
0.0
 40
0.0
 40
0.0
 40
0.1250000000000034
 40
0.1250000000000034
 40
0.2500000000000067
 40
0.2500000000000067
 40
0.3125000000000084
 40
0.3125000000000084
 40
0.3281250000000078
 40
0.3281250000000078
 40
0.3437500000000071
 40
0.3437500000000071
 40
0.3750000000000061
 40
0.3750000000000061
 40
0.4375000000000057
 40
0.5000000000000052
 40
0.5625000000000048
 40
0.6250000000000043
 40
0.6250000000000043
 40
0.6562500000000031
 40
0.6562500000000031
 40
0.6718750000000024
 40
0.6718750000000024
 40
0.6875000000000017
 40
0.7500000000000013
 40
0.8125000000000011
 40
0.8750000000000008
 40
0.9375000000000004
 40
1.0
 40
1.0
 40
1.0
 40
1.0
 10
395.9424002678294
 20
540.1703497111872
 30
0.0
 10
395.4139238581657
 20
540.6618199328638
 30
0.0
 10
394.9061880917425
 20
541.1814737360987
 30
0.0
 10
393.9349028419803
 20
542.2790168990272
 30
0.0
 10
393.4713382594132
 20
542.8568900479892
 30
0.0
 10
392.8120754151043
 20
543.7700940917437
 30
0.0
 10
392.5983461671867
 20
544.0822431071009
 30
0.0
 10
392.3391263805673
 20
544.4825359201759
 30
0.0
 10
392.2876798272416
 20
544.5631002250725
 30
0.0
 10
392.1855931137412
 20
544.7252526025668
 30
0.0
 10
392.1349568001405
 20
544.806836992695
 30
0.0
 10
391.9847499217685
 20
545.0523546048806
 30
0.0
 10
391.8867178582533
 20
545.2173092505143
 30
0.0
 10
391.5989477542893
 20
545.7159965042359
 30
0.0
 10
391.2321163166851
 20
546.3911033253438
 30
0.0
 10
390.7328667120553
 20
547.4344324873327
 30
0.0
 10
390.2854126396944
 20
548.5087818079849
 30
0.0
 10
390.0224519777778
 20
549.2461097731575
 30
0.0
 10
389.838908973122
 20
549.8072484448829
 30
0.0
 10
389.7800088578193
 20
549.995652613905
 30
0.0
 10
389.6951457555456
 20
550.2803328331381
 30
0.0
 10
389.6674149680404
 20
550.3756594784578
 30
0.0
 10
389.6132814652867
 20
550.5664637417749
 30
0.0
 10
389.4812473063974
 20
551.0439006940777
 30
0.0
 10
389.2730783573754
 20
551.9070981841184
 30
0.0
 10
389.0573628668465
 20
553.0660223905192
 30
0.0
 10
388.902951655409
 20
554.2328719348594
 30
0.0
 10
388.8098159044025
 20
555.407641720068
 30
0.0
 10
388.788894835741
 20
556.1961406263504
 30
0.0
 10
388.788894835741
 20
556.5917405981446
 30
0.0
  0
SPLINE
  5
150
330
1F
100
AcDbEntity
  8
1
  6
Continuous
 62
    30
370
    18
100
AcDbSpline
210
0.0
220
0.0
230
1.0
 70
    24
 71
     3
 72
     8
 73
     4
 74
     0
 42
0.000000001
 43
0.0000000001
 40
0.0
 40
0.0
 40
0.0
 40
0.0
 40
1.0
 40
1.0
 40
1.0
 40
1.0
 10
366.163894835741
 20
578.4004309186688
 30
0.0
 10
366.163894835741
 20
578.4943246703033
 30
0.0
 10
366.163894835741
 20
578.5882184219378
 30
0.0
 10
366.163894835741
 20
578.6821121735722
 30
0.0
  0
SPLINE
  5
151
330
1F
100
AcDbEntity
  8
1
  6
Continuous
 62
    30
370
    18
100
AcDbSpline
210
0.0
220
0.0
230
1.0
 70
    24
 71
     3
 72
     8
 73
     4
 74
     0
 42
0.000000001
 43
0.0000000001
 40
0.0
 40
0.0
 40
0.0
 40
0.0
 40
1.0
 40
1.0
 40
1.0
 40
1.0
 10
366.163894835741
 20
578.6821121735722
 30
0.0
 10
366.163894835741
 20
578.7355738402389
 30
0.0
 10
366.163894835741
 20
578.7890355069056
 30
0.0
 10
366.163894835741
 20
578.8424971735723
 30
0.0
  0
SPLINE
  5
152
330
1F
100
AcDbEntity
  8
1
  6
Continuous
 62
    30
370
    18
100
AcDbSpline
210
0.0
220
0.0
230
1.0
 70
    24
 71
     3
 72
     8
 73
     4
 74
     0
 42
0.000000001
 43
0.0000000001
 40
0.0
 40
0.0
 40
0.0
 40
0.0
 40
1.0
 40
1.0
 40
1.0
 40
1.0
 10
394.163894835741
 20
586.7605433896042
 30
0.0
 10
394.163894835741
 20
586.7604210776451
 30
0.0
 10
394.163894835741
 20
586.760298765686
 30
0.0
 10
394.163894835741
 20
586.7601764537268
 30
0.0
  0
SPLINE
  5
153
330
1F
100
AcDbEntity
  8
1
  6
Continuous
 62
    30
370
    18
100
AcDbSpline
210
0.0
220
0.0
230
1.0
 70
    24
 71
     3
 72
     8
 73
     4
 74
     0
 42
0.000000001
 43
0.0000000001
 40
0.0
 40
0.0
 40
0.0
 40
0.0
 40
1.0
 40
1.0
 40
1.0
 40
1.0
 10
394.163894835741
 20
586.7592297748108
 30
0.0
 10
394.163894835741
 20
586.7591009430245
 30
0.0
 10
394.163894835741
 20
586.7589721112381
 30
0.0
 10
394.163894835741
 20
586.7588432794518
 30
0.0
  0
SPLINE
  5
154
330
1F
100
AcDbEntity
  8
1
  6
Continuous
 62
    30
370
    18
100
AcDbSpline
210
0.0
220
0.0
230
1.0
 70
     8
 71
     3
 72
    10
 73
     6
 74
     0
 42
0.000000001
 43
0.0000000001
 40
0.0
 40
0.0
 40
0.0
 40
0.0
 40
0.6680304869261295
 40
0.6680304869261295
 40
1.0
 40
1.0
 40
1.0
 40
1.0
 10
362.1538277442755
 20
545.8454383725282
 30
0.0
 10
362.2308495776216
 20
545.9141902920998
 30
0.0
 10
362.3074154240687
 20
545.984123449774
 30
0.0
 10
362.4213275486043
 20
546.0906213500906
 30
0.0
 10
362.4590275308953
 20
546.126273299383
 30
0.0
 10
362.4966099710837
 20
546.1622280771007
 30
0.0
  0
SPLINE
  5
155
330
1F
100
AcDbEntity
  8
1
  6
Continuous
 62
    30
370
    18
100
AcDbSpline
210
0.0
220
0.0
230
1.0
 70
    24
 71
     3
 72
     8
 73
     4
 74
     0
 42
0.000000001
 43
0.0000000001
 40
0.0
 40
0.0
 40
0.0
 40
0.0
 40
1.0
 40
1.0
 40
1.0
 40
1.0
 10
394.163894835741
 20
586.7578919062602
 30
0.0
 10
394.163894835741
 20
586.7577620313015
 30
0.0
 10
394.163894835741
 20
586.7576321563427
 30
0.0
 10
394.163894835741
 20
586.757502281384
 30
0.0
  0
SPLINE
  5
156
330
1F
100
AcDbEntity
  8
1
  6
Continuous
 62
    30
370
    18
100
AcDbSpline
210
0.0
220
0.0
230
1.0
 70
    24
 71
     3
 72
     8
 73
     4
 74
     0
 42
0.000000001
 43
0.0000000001
 40
0.0
 40
0.0
 40
0.0
 40
0.0
 40
1.0
 40
1.0
 40
1.0
 40
1.0
 10
394.163894835741
 20
586.757502281384
 30
0.0
 10
394.163894835741
 20
586.6144102813839
 30
0.0
 10
394.163894835741
 20
586.4713182813839
 30
0.0
 10
394.163894835741
 20
586.3282262813839
 30
0.0
  0
SPLINE
  5
157
330
1F
100
AcDbEntity
  8
1
  6
Continuous
 62
    30
370
    18
100
AcDbSpline
210
0.0
220
0.0
230
1.0
 70
    24
 71
     3
 72
    12
 73
     8
 74
     0
 42
0.000000001
 43
0.0000000001
 40
0.0
 40
0.0
 40
0.0
 40
0.0
 40
0.1612220278320607
 40
0.1612220278320607
 40
0.8647805772864885
 40
0.8647805772864885
 40
1.0
 40
1.0
 40
1.0
 40
1.0
 10
394.163894835741
 20
586.297701870379
 30
0.0
 10
394.163894835741
 20
586.2976756811474
 30
0.0
 10
394.163894835741
 20
586.2821436158019
 30
0.0
 10
394.163894835741
 20
586.1166627677652
 30
0.0
 10
394.163894835741
 20
585.8032591649136
 30
0.0
 10
394.163894835741
 20
585.2186611448378
 30
0.0
 10
394.163894835741
 20
585.121071143079
 30
0.0
 10
394.163894835741
 20
585.0201448703785
 30
0.0
  0
SPLINE
  5
158
330
1F
100
AcDbEntity
  8
1
  6
Continuous
 62
    30
370
    18
100
AcDbSpline
210
0.0
220
0.0
230
1.0
 70
    24
 71
     3
 72
     8
 73
     4
 74
     0
 42
0.000000001
 43
0.0000000001
 40
0.0
 40
0.0
 40
0.0
 40
0.0
 40
1.0
 40
1.0
 40
1.0
 40
1.0
 10
366.163894835741
 20
578.8731968889336
 30
0.0
 10
366.163894835741
 20
578.910310619082
 30
0.0
 10
366.163894835741
 20
579.0457458216076
 30
0.0
 10
366.163894835741
 20
579.2806732676229
 30
0.0
  0
SPLINE
  5
159
330
1F
100
AcDbEntity
  8
1
  6
Continuous
 62
    30
370
    18
100
AcDbSpline
210
0.0
220
0.0
230
1.0
 70
    24
 71
     3
 72
     8
 73
     4
 74
     0
 42
0.000000001
 43
0.0000000001
 40
0.0
 40
0.0
 40
0.0
 40
0.0
 40
1.0
 40
1.0
 40
1.0
 40
1.0
 10
394.163894835741
 20
584.9499359051247
 30
0.0
 10
394.163894835741
 20
584.9500889267752
 30
0.0
 10
394.163894835741
 20
584.900258079863
 30
0.0
 10
394.163894835741
 20
584.8002486078191
 30
0.0
  0
SPLINE
  5
15A
330
1F
100
AcDbEntity
  8
1
  6
Continuous
 62
    30
370
    18
100
AcDbSpline
210
0.0
220
0.0
230
1.0
 70
    24
 71
     3
 72
     8
 73
     4
 74
     0
 42
0.000000001
 43
0.0000000001
 40
0.0
 40
0.0
 40
0.0
 40
0.0
 40
1.0
 40
1.0
 40
1.0
 40
1.0
 10
394.163894835741
 20
584.8002486078191
 30
0.0
 10
394.163894835741
 20
584.6702758027293
 30
0.0
 10
394.163894835741
 20
584.4827616045286
 30
0.0
 10
394.163894835741
 20
584.2379816078192
 30
0.0
  0
SPLINE
  5
15B
330
1F
100
AcDbEntity
  8
1
  6
Continuous
 62
    30
370
    18
100
AcDbSpline
210
0.0
220
0.0
230
1.0
 70
    24
 71
     3
 72
    10
 73
     6
 74
     0
 42
0.000000001
 43
0.0000000001
 40
0.0
 40
0.0
 40
0.0
 40
0.0
 40
0.54227618516504
 40
0.54227618516504
 40
1.0
 40
1.0
 40
1.0
 40
1.0
 10
366.163894835741
 20
584.2642376293353
 30
0.0
 10
366.163894835741
 20
584.5059572476944
 30
0.0
 10
366.163894835741
 20
584.6875024701072
 30
0.0
 10
366.163894835741
 20
584.9119528996467
 30
0.0
 10
366.163894835741
 20
584.9631010669846
 30
0.0
 10
366.1638948357411
 20
584.9628528309338
 30
0.0
  0
SPLINE
  5
15C
330
1F
100
AcDbEntity
  8
1
  6
Continuous
 62
    30
370
    18
100
AcDbSpline
210
0.0
220
0.0
230
1.0
 70
    24
 71
     3
 72
    10
 73
     6
 74
     0
 42
0.000000001
 43
0.0000000001
 40
0.0
 40
0.0
 40
0.0
 40
0.0
 40
0.3294987674609733
 40
0.3294987674609733
 40
1.0
 40
1.0
 40
1.0
 40
1.0
 10
366.163894835741
 20
579.2806732676229
 30
0.0
 10
366.163894835741
 20
579.5170237353074
 30
0.0
 10
366.163894835741
 20
579.9205148138361
 30
0.0
 10
366.163894835741
 20
581.6523321853249
 30
0.0
 10
366.163894835741
 20
582.8135178674406
 30
0.0
 10
366.1638948357409
 20
583.9747035495564
 30
0.0
  0
SPLINE
  5
15D
330
1F
100
AcDbEntity
  8
1
  6
Continuous
 62
    30
370
    18
100
AcDbSpline
210
0.0
220
0.0
230
1.0
 70
    24
 71
     3
 72
     8
 73
     4
 74
     0
 42
0.000000001
 43
0.0000000001
 40
0.0
 40
0.0
 40
0.0
 40
0.0
 40
1.0
 40
1.0
 40
1.0
 40
1.0
 10
366.1638948357409
 20
583.9747035495564
 30
0.0
 10
366.1638948357409
 20
584.0611454833592
 30
0.0
 10
366.163894835741
 20
584.147587417162
 30
0.0
 10
366.163894835741
 20
584.2340293509646
 30
0.0
  0
SPLINE
  5
15E
330
1F
100
AcDbEntity
  8
1
  6
Continuous
 62
    30
370
    18
100
AcDbSpline
210
0.0
220
0.0
230
1.0
 70
    24
 71
     3
 72
     8
 73
     4
 74
     0
 42
0.000000001
 43
0.0000000001
 40
0.0
 40
0.0
 40
0.0
 40
0.0
 40
1.0
 40
1.0
 40
1.0
 40
1.0
 10
394.163894835741
 20
583.9721462065254
 30
0.0
 10
394.163894835741
 20
582.1149077772399
 30
0.0
 10
394.163894835741
 20
580.2576693479543
 30
0.0
 10
394.163894835741
 20
578.4004309186688
 30
0.0
  0
SPLINE
  5
15F
330
1F
100
AcDbEntity
  8
1
  6
Continuous
 62
    30
370
    18
100
AcDbSpline
210
0.0
220
0.0
230
1.0
 70
    24
 71
     3
 72
     8
 73
     4
 74
     0
 42
0.000000001
 43
0.0000000001
 40
0.0
 40
0.0
 40
0.0
 40
0.0
 40
1.0
 40
1.0
 40
1.0
 40
1.0
 10
394.163894835741
 20
584.228593515677
 30
0.0
 10
394.163894835741
 20
584.1431110792931
 30
0.0
 10
394.163894835741
 20
584.0576286429092
 30
0.0
 10
394.163894835741
 20
583.9721462065254
 30
0.0
  0
SPLINE
  5
160
330
1F
100
AcDbEntity
  8
1
  6
Continuous
 62
    30
370
    18
100
AcDbSpline
210
0.0
220
0.0
230
1.0
 70
     8
 71
     3
 72
    10
 73
     6
 74
     0
 42
0.000000001
 43
0.0000000001
 40
0.0
 40
0.0
 40
0.0
 40
0.0
 40
0.3206620167900474
 40
0.3206620167900474
 40
1.0
 40
1.0
 40
1.0
 40
1.0
 10
397.8228468051817
 20
546.170206893138
 30
0.0
 10
397.863188843749
 20
546.1315460537934
 30
0.0
 10
397.9036666304959
 20
546.0932348916273
 30
0.0
 10
398.0303135134148
 20
545.9748311030271
 30
0.0
 10
398.1169491631289
 20
545.8959425168007
 30
0.0
 10
398.2041655098064
 20
545.8185589750054
 30
0.0
  0
SPLINE
  5
161
330
1F
100
AcDbEntity
  8
1
  6
Continuous
 62
    30
370
    13
100
AcDbSpline
210
0.0
220
0.0
230
1.0
 70
     8
 71
     3
 72
    34
 73
    30
 74
     0
 42
0.000000001
 43
0.0000000001
 40
0.0
 40
0.0
 40
0.0
 40
0.0
 40
0.0625000000000027
 40
0.1250000000000053
 40
0.1875000000000079
 40
0.2500000000000106
 40
0.2500000000000106
 40
0.281250000000012
 40
0.2968750000000127
 40
0.2968750000000127
 40
0.3125000000000133
 40
0.3125000000000133
 40
0.375000000000012
 40
0.375000000000012
 40
0.4375000000000107
 40
0.5000000000000094
 40
0.5625000000000081
 40
0.6250000000000068
 40
0.6250000000000068
 40
0.6562500000000071
 40
0.6718750000000071
 40
0.6718750000000071
 40
0.6875000000000071
 40
0.6875000000000071
 40
0.7500000000000049
 40
0.7500000000000049
 40
0.8750000000000024
 40
0.8750000000000024
 40
1.0
 40
1.0
 40
1.0
 40
1.0
 10
856.434754494635
 20
610.5917405981447
 30
0.0
 10
856.480434496227
 20
610.1955220284614
 30
0.0
 10
856.5568804705148
 20
609.4053522377048
 30
0.0
 10
856.6277121887003
 20
608.2268214463543
 30
0.0
 10
856.655108293117
 20
607.05498978072
 30
0.0
 10
856.644358209701
 20
606.2782531408428
 30
0.0
 10
856.6252698031261
 20
605.6974026833108
 30
0.0
 10
856.6129671771224
 20
605.4074031731485
 30
0.0
 10
856.5964812615441
 20
605.1180480520984
 30
0.0
 10
856.5845546330129
 20
604.9252886254208
 30
0.0
 10
856.5781293720297
 20
604.8290902659542
 30
0.0
 10
856.5437863877295
 20
604.3501593220709
 30
0.0
 10
856.5091578344642
 20
603.97248445458
 30
0.0
 10
856.4260284508133
 20
603.2276830719121
 30
0.0
 10
856.3290257416845
 20
602.493430788555
 30
0.0
 10
856.1426926869699
 20
601.4228595490601
 30
0.0
 10
855.9158650031692
 20
600.3825428273318
 30
0.0
 10
855.7375879477493
 20
599.7089742940353
 30
0.0
 10
855.5936062781992
 20
599.2112775193727
 30
0.0
 10
855.5190453647483
 20
598.9642999584454
 30
0.0
 10
855.4405907541841
 20
598.7201349532728
 30
0.0
 10
855.3874170864574
 20
598.5579845823022
 30
0.0
 10
855.3603702611689
 20
598.4771510976088
 30
0.0
 10
855.2233296839478
 20
598.0756674066695
 30
0.0
 10
855.1078950023029
 20
597.7629191914497
 30
0.0
 10
854.744676452395
 20
596.8488005495151
 30
0.0
 10
854.480029557795
 20
596.2714893298835
 30
0.0
 10
853.9069260371062
 20
595.1766622426823
 30
0.0
 10
853.5984595279776
 20
594.6591662599246
 30
0.0
 10
853.2678993683169
 20
594.1703497111872
 30
0.0
  0
SPLINE
  5
162
330
1F
100
AcDbEntity
  8
1
  6
Continuous
 62
    30
370
    13
100
AcDbSpline
210
0.0
220
0.0
230
1.0
 70
     8
 71
     3
 72
    34
 73
    30
 74
     0
 42
0.000000001
 43
0.0000000001
 40
0.0
 40
0.0
 40
0.0
 40
0.0
 40
0.1250000000000028
 40
0.1250000000000028
 40
0.2500000000000057
 40
0.2500000000000057
 40
0.3125000000000071
 40
0.3125000000000071
 40
0.3281250000000064
 40
0.3281250000000064
 40
0.3437500000000057
 40
0.3437500000000057
 40
0.3750000000000047
 40
0.3750000000000047
 40
0.4375000000000046
 40
0.5000000000000044
 40
0.5625000000000043
 40
0.6250000000000041
 40
0.6250000000000041
 40
0.6562500000000031
 40
0.6562500000000031
 40
0.6718750000000024
 40
0.6718750000000024
 40
0.6875000000000018
 40
0.7500000000000014
 40
0.8125000000000011
 40
0.8750000000000007
 40
0.9375000000000003
 40
1.0
 40
1.0
 40
1.0
 40
1.0
 10
769.8279219390937
 20
594.1703497111872
 30
0.0
 10
769.495567244136
 20
594.6618199328638
 30
0.0
 10
769.1860946185316
 20
595.1814737360987
 30
0.0
 10
768.6121365245269
 20
596.279016899027
 30
0.0
 10
768.3476433613293
 20
596.8568900479892
 30
0.0
 10
767.9852216670283
 20
597.7700940917437
 30
0.0
 10
767.8701468906994
 20
598.0822431071009
 30
0.0
 10
767.7336391790193
 20
598.4825359201759
 30
0.0
 10
767.7067047446103
 20
598.5631002250725
 30
0.0
 10
767.6535756733805
 20
598.7252526025668
 30
0.0
 10
767.6273833707589
 20
598.806836992695
 30
0.0
 10
767.550167028295
 20
599.0523546048807
 30
0.0
 10
767.5004179641786
 20
599.2173092505143
 30
0.0
 10
767.356309131856
 20
599.7159965042359
 30
0.0
 10
767.1778577499209
 20
600.3911033253438
 30
0.0
 10
766.9508210975563
 20
601.4344324873327
 30
0.0
 10
766.7644012826061
 20
602.5087818079849
 30
0.0
 10
766.6674711371207
 20
603.2461097731575
 30
0.0
 10
766.6052494505032
 20
603.8072484448829
 30
0.0
 10
766.58625614254
 20
603.995652613905
 30
0.0
 10
766.5604267012009
 20
604.2803328331381
 30
0.0
 10
766.5522536551877
 20
604.3756594784578
 30
0.0
 10
766.5368451794919
 20
604.5664637417749
 30
0.0
 10
766.500659852384
 20
605.0439006940777
 30
0.0
 10
766.4563667920667
 20
605.9070982322628
 30
0.0
 10
766.4408384017655
 20
607.0660224079625
 30
0.0
 10
766.468416328038
 20
608.2328719348594
 30
0.0
 10
766.5391591604987
 20
609.407641720068
 30
0.0
 10
766.6154581292761
 20
610.1961406263504
 30
0.0
 10
766.6610668127757
 20
610.5917405981446
 30
0.0
  0
SPLINE
  5
163
330
1F
100
AcDbEntity
  8
1
  6
Continuous
 62
    30
370
    13
100
AcDbSpline
210
0.0
220
0.0
230
1.0
 70
     8
 71
     3
 72
    33
 73
    29
 74
     0
 42
0.000000001
 43
0.0000000001
 40
0.0
 40
0.0
 40
0.0
 40
0.0
 40
0.125000000000021
 40
0.125000000000021
 40
0.2500000000000419
 40
0.2500000000000419
 40
0.3125000000000523
 40
0.3125000000000523
 40
0.3281250000000523
 40
0.3281250000000523
 40
0.3437500000000523
 40
0.3750000000000521
 40
0.3750000000000521
 40
0.4375000000000484
 40
0.4375000000000484
 40
0.5000000000000446
 40
0.5000000000000446
 40
0.6250000000000409
 40
0.6250000000000409
 40
0.6562500000000376
 40
0.6562500000000376
 40
0.6875000000000344
 40
0.6875000000000344
 40
0.7500000000000285
 40
0.7500000000000285
 40
0.8750000000000143
 40
0.8750000000000143
 40
1.0
 40
1.0
 40
1.0
 40
1.0
 10
772.5158725311578
 20
609.9167405981447
 30
0.0
 10
772.434688558172
 20
609.4292366091411
 30
0.0
 10
772.3805436982028
 20
608.9447792153501
 30
0.0
 10
772.3246119045467
 20
607.9818537235891
 30
0.0
 10
772.3228269635049
 20
607.5033856414736
 30
0.0
 10
772.3599984533165
 20
606.7902436730262
 30
0.0
 10
772.3790495269265
 20
606.5532912168949
 30
0.0
 10
772.4114015494521
 20
606.2580717113199
 30
0.0
 10
772.4183065694587
 20
606.1990186474046
 30
0.0
 10
772.4329440726457
 20
606.0812825725957
 30
0.0
 10
772.456106399798
 20
605.9054944121774
 30
0.0
 10
772.4828365311299
 20
605.7321173266535
 30
0.0
 10
772.540937592845
 20
605.3884910662316
 30
0.0
 10
772.5858541397055
 20
605.1635742510948
 30
0.0
 10
772.6875711640882
 20
604.7216975101161
 30
0.0
 10
772.7443725705082
 20
604.5047382041082
 30
0.0
 10
772.9321190372366
 20
603.8653732991468
 30
0.0
 10
773.0803492286751
 20
603.454447940906
 30
0.0
 10
773.2938153796317
 20
602.959094778512
 30
0.0
 10
773.337935265918
 20
602.8609138376371
 30
0.0
 10
773.4289495171503
 20
602.6664912297445
 30
0.0
 10
773.4756097498268
 20
602.5707467991297
 30
0.0
 10
773.6189479530354
 20
602.2877529013981
 30
0.0
 10
773.7189797147361
 20
602.1047380312187
 30
0.0
 10
774.0318306741602
 20
601.5715433527113
 30
0.0
 10
774.2573647686156
 20
601.2371622914968
 30
0.0
 10
774.7400587170038
 20
600.6063057668539
 30
0.0
 10
774.9972329580661
 20
600.3098506208596
 30
0.0
 10
775.2696595975214
 20
600.0309534421168
 30
0.0
  0
SPLINE
  5
164
330
1F
100
AcDbEntity
  8
1
  6
Continuous
 62
    30
370
    13
100
AcDbSpline
210
0.0
220
0.0
230
1.0
 70
     8
 71
     3
 72
    39
 73
    35
 74
     0
 42
0.000000001
 43
0.0000000001
 40
0.0
 40
0.0
 40
0.0
 40
0.0
 40
0.125000000000015
 40
0.125000000000015
 40
0.2500000000000301
 40
0.2500000000000301
 40
0.3125000000000376
 40
0.3125000000000376
 40
0.328125000000038
 40
0.328125000000038
 40
0.3437500000000385
 40
0.3437500000000385
 40
0.3750000000000365
 40
0.3750000000000365
 40
0.5000000000000324
 40
0.5000000000000324
 40
0.5625000000000323
 40
0.5625000000000323
 40
0.5937500000000324
 40
0.6093750000000325
 40
0.6093750000000325
 40
0.6250000000000325
 40
0.6250000000000325
 40
0.687500000000034
 40
0.687500000000034
 40
0.7031250000000335
 40
0.7031250000000335
 40
0.7187500000000331
 40
0.7187500000000331
 40
0.7500000000000286
 40
0.7500000000000286
 40
0.8750000000000143
 40
0.8750000000000143
 40
1.0
 40
1.0
 40
1.0
 40
1.0
 10
847.8261617098892
 20
600.0309534421168
 30
0.0
 10
848.096241835918
 20
600.3074483742369
 30
0.0
 10
848.3517771436993
 20
600.6016514501798
 30
0.0
 10
848.8323908466954
 20
601.2286917608143
 30
0.0
 10
849.057485016333
 20
601.5615056192701
 30
0.0
 10
849.3703984413412
 20
602.0932560371523
 30
0.0
 10
849.4705711591183
 20
602.2759418990681
 30
0.0
 10
849.5903235185159
 20
602.5116049312962
 30
0.0
 10
849.6140004927562
 20
602.5591032673358
 30
0.0
 10
849.660798615584
 20
602.6548460618142
 30
0.0
 10
849.6838863815146
 20
602.7030234773181
 30
0.0
 10
849.7520791332075
 20
602.8481999898166
 30
0.0
 10
849.796169404556
 20
602.9459566426733
 30
0.0
 10
850.0097387756842
 20
603.4396505352411
 30
0.0
 10
850.1586469947199
 20
603.8502709098528
 30
0.0
 10
850.3477661608038
 20
604.4911920138192
 30
0.0
 10
850.4050840771827
 20
604.7090069343037
 30
0.0
 10
850.4821591689213
 20
605.0422797488368
 30
0.0
 10
850.5184694838188
 20
605.2105549656787
 30
0.0
 10
850.5513613585497
 20
605.3813545583765
 30
0.0
 10
850.5725196285662
 20
605.4957902143068
 30
0.0
 10
850.5827195472586
 20
605.5533275329459
 30
0.0
 10
850.6316508261651
 20
605.8417398737226
 30
0.0
 10
850.6642601314318
 20
606.0751582170418
 30
0.0
 10
850.6967510266685
 20
606.3703513023473
 30
0.0
 10
850.7028352790359
 20
606.4295610619722
 30
0.0
 10
850.7141718137356
 20
606.5483249068698
 30
0.0
 10
850.7194209465318
 20
606.6078537142084
 30
0.0
 10
850.7338764753878
 20
606.7864242662686
 30
0.0
 10
850.7418079554784
 20
606.9056189823033
 30
0.0
 10
850.7730518527895
 20
607.5023229831572
 30
0.0
 10
850.7712241741988
 20
607.9820179670346
 30
0.0
 10
850.7151847126148
 20
608.9459593973957
 30
0.0
 10
850.6609713009107
 20
609.4302060948785
 30
0.0
 10
850.5799487762528
 20
609.9167405981447
 30
0.0
  0
SPLINE
  5
165
330
1F
100
AcDbEntity
  8
1
  6
Continuous
 62
    30
370
    13
100
AcDbSpline
210
0.0
220
0.0
230
1.0
 70
     8
 71
     3
 72
    31
 73
    27
 74
     0
 42
0.000000001
 43
0.0000000001
 40
0.0
 40
0.0
 40
0.0
 40
0.0
 40
0.1250000000000015
 40
0.1250000000000015
 40
0.250000000000003
 40
0.250000000000003
 40
0.3750000000000045
 40
0.3750000000000045
 40
0.4062500000000037
 40
0.4062500000000037
 40
0.4218750000000036
 40
0.4218750000000036
 40
0.4375000000000035
 40
0.5000000000000037
 40
0.5000000000000037
 40
0.6250000000000026
 40
0.6250000000000026
 40
0.7500000000000014
 40
0.7500000000000014
 40
0.8125000000000011
 40
0.8125000000000011
 40
0.8437500000000009
 40
0.8437500000000009
 40
0.8750000000000007
 40
0.8750000000000007
 40
1.0
 40
1.0
 40
1.0
 40
1.0
 10
775.2696595975214
 20
600.0309534421168
 30
0.0
 10
775.6078666728392
 20
599.6847134439815
 30
0.0
 10
775.9559093085094
 20
599.3684021492562
 30
0.0
 10
776.6754118766581
 20
598.7908294805092
 30
0.0
 10
777.0468669584196
 20
598.529578376999
 30
0.0
 10
777.8161868347502
 20
598.0579869574848
 30
0.0
 10
778.2140473713339
 20
597.8476523854802
 30
0.0
 10
778.7293703420635
 20
597.6142196417932
 30
0.0
 10
778.8333334901406
 20
597.5690081611306
 30
0.0
 10
778.9906503461009
 20
597.5033618496254
 30
0.0
 10
779.0433394644913
 20
597.4818330134729
 30
0.0
 10
779.1490791356331
 20
597.4395319029188
 30
0.0
 10
779.4141431758252
 20
597.3357446729806
 30
0.0
 10
779.6828064431393
 20
597.2415915037551
 30
0.0
 10
780.3346469549563
 20
597.0327888376042
 30
0.0
 10
780.7786149106591
 20
596.9164406513887
 30
0.0
 10
781.6858136714446
 20
596.7232618603709
 30
0.0
 10
782.1490400707083
 20
596.6464405564592
 30
0.0
 10
782.8584673802625
 20
596.5569313147304
 30
0.0
 10
783.0973728934625
 20
596.5313885595002
 30
0.0
 10
783.4593832588015
 20
596.4990755970099
 30
0.0
 10
783.5806620030012
 20
596.4893051274207
 30
0.0
 10
783.8244373581931
 20
596.4716956257122
 30
0.0
 10
783.9469847433223
 20
596.4638541318475
 30
0.0
 10
784.5618946847318
 20
596.4293518692134
 30
0.0
 10
785.0610506912293
 20
596.4167405981447
 30
0.0
 10
785.567407069844
 20
596.4167405981447
 30
0.0
  0
SPLINE
  5
166
330
1F
100
AcDbEntity
  8
1
  6
Continuous
 62
    30
370
    13
100
AcDbSpline
210
0.0
220
0.0
230
1.0
 70
     8
 71
     3
 72
    27
 73
    23
 74
     0
 42
0.000000001
 43
0.0000000001
 40
0.0
 40
0.0
 40
0.0
 40
0.0
 40
0.1249999999999978
 40
0.1249999999999978
 40
0.2499999999999956
 40
0.2499999999999956
 40
0.3749999999999933
 40
0.3749999999999933
 40
0.4999999999999911
 40
0.4999999999999911
 40
0.5624999999999903
 40
0.5624999999999903
 40
0.5781249999999903
 40
0.5781249999999903
 40
0.5937499999999906
 40
0.6249999999999909
 40
0.6249999999999909
 40
0.7499999999999939
 40
0.7499999999999939
 40
0.8749999999999969
 40
0.8749999999999969
 40
1.0
 40
1.0
 40
1.0
 40
1.0
 10
837.5284142375666
 20
596.4167405981447
 30
0.0
 10
838.035374516589
 20
596.4167405981447
 30
0.0
 10
838.5333869228099
 20
596.429393098233
 30
0.0
 10
839.5114639940325
 20
596.484129948314
 30
0.0
 10
839.9915266818598
 20
596.5262079045884
 30
0.0
 10
840.9337117926187
 20
596.6445055702028
 30
0.0
 10
841.395831215785
 20
596.7207170482667
 30
0.0
 10
842.3022723783736
 20
596.9128016762801
 30
0.0
 10
842.7465894732488
 20
597.0286637310448
 30
0.0
 10
843.4000090508393
 20
597.2371645124717
 30
0.0
 10
843.6156419216622
 20
597.3124589702034
 30
0.0
 10
843.8825201058901
 20
597.4144218510668
 30
0.0
 10
843.9357939291885
 20
597.4352196606633
 30
0.0
 10
844.0418549302528
 20
597.4775266094839
 30
0.0
 10
844.2002549682082
 20
597.5420669987201
 30
0.0
 10
844.3565977366733
 20
597.6098786264179
 30
0.0
 10
844.8732490015408
 20
597.8433285251042
 30
0.0
 10
845.2721766013333
 20
598.0537908514519
 30
0.0
 10
846.043629150533
 20
598.5259446620953
 30
0.0
 10
846.4161496986184
 20
598.7876302586654
 30
0.0
 10
847.1377807641437
 20
599.36647303568
 30
0.0
 10
847.48688623736
 20
599.6836196707417
 30
0.0
 10
847.8261617098893
 20
600.0309534421168
 30
0.0
  0
SPLINE
  5
167
330
1F
100
AcDbEntity
  8
1
  6
Continuous
 62
    30
370
    13
100
AcDbSpline
210
0.0
220
0.0
230
1.0
 70
     8
 71
     3
 72
    33
 73
    29
 74
     0
 42
0.000000001
 43
0.0000000001
 40
0.0
 40
0.0
 40
0.0
 40
0.0
 40
0.1250000000000023
 40
0.1250000000000023
 40
0.1406250000000024
 40
0.1406250000000024
 40
0.1562500000000026
 40
0.187500000000003
 40
0.2500000000000043
 40
0.2500000000000043
 40
0.3750000000000073
 40
0.3750000000000073
 40
0.5000000000000102
 40
0.5000000000000102
 40
0.5625000000000112
 40
0.5625000000000112
 40
0.5781250000000112
 40
0.5781250000000112
 40
0.5937500000000111
 40
0.6250000000000104
 40
0.6250000000000104
 40
0.750000000000007
 40
0.750000000000007
 40
0.8750000000000034
 40
0.8750000000000034
 40
0.9375000000000018
 40
0.9375000000000018
 40
1.0
 40
1.0
 40
1.0
 40
1.0
 10
781.5334291272483
 20
588.9498200476719
 30
0.0
 10
780.9171080079755
 20
588.9498200476719
 30
0.0
 10
780.31555718476
 20
588.9700576622332
 30
0.0
 10
779.6548117615248
 20
589.0188747461071
 30
0.0
 10
779.5816106042212
 20
589.0246620396925
 30
0.0
 10
779.4357937759512
 20
589.0369608884463
 30
0.0
 10
779.2178947117088
 20
589.0564991546491
 30
0.0
 10
778.715208807241
 20
589.1098155448543
 30
0.0
 10
778.2940548511485
 20
589.1690982998805
 30
0.0
 10
777.464363666171
 20
589.3067322175336
 30
0.0
 10
776.928061814997
 20
589.4238793873451
 30
0.0
 10
775.8872467634901
 20
589.7147437835022
 30
0.0
 10
775.3827390689215
 20
589.8884450003861
 30
0.0
 10
774.6483010719741
 20
590.1966866421453
 30
0.0
 10
774.407207165251
 20
590.30739339643
 30
0.0
 10
774.1103097989521
 20
590.4563787932603
 30
0.0
 10
774.0511292823974
 20
590.4867196057837
 30
0.0
 10
773.9334441122741
 20
590.5483552418489
 30
0.0
 10
773.757861397856
 20
590.6422726548203
 30
0.0
 10
773.5850750475477
 20
590.7406145111961
 30
0.0
 10
773.0151620139436
 20
591.078406034074
 30
0.0
 10
772.5785705411258
 20
591.3805471847272
 30
0.0
 10
771.7395690389861
 20
592.0532425116459
 30
0.0
 10
771.3371660142243
 20
592.4237787658833
 30
0.0
 10
770.7556293137425
 20
593.0353895947859
 30
0.0
 10
770.5654589425685
 20
593.2485736518128
 30
0.0
 10
770.1918279882436
 20
593.6945104867359
 30
0.0
 10
770.0083677376717
 20
593.9272620057133
 30
0.0
 10
769.8279219390937
 20
594.1703497111872
 30
0.0
  0
SPLINE
  5
168
330
1F
100
AcDbEntity
  8
1
  6
Continuous
 62
    30
370
    13
100
AcDbSpline
210
0.0
220
0.0
230
1.0
 70
     8
 71
     3
 72
    28
 73
    24
 74
     0
 42
0.000000001
 43
0.0000000001
 40
0.0
 40
0.0
 40
0.0
 40
0.0
 40
0.062500000000001
 40
0.062500000000001
 40
0.125000000000002
 40
0.125000000000002
 40
0.2500000000000036
 40
0.2500000000000036
 40
0.3750000000000052
 40
0.3750000000000052
 40
0.4375000000000061
 40
0.4375000000000061
 40
0.4687500000000059
 40
0.4687500000000059
 40
0.5000000000000058
 40
0.5000000000000058
 40
0.6250000000000043
 40
0.6250000000000043
 40
0.7500000000000029
 40
0.7500000000000029
 40
0.8750000000000014
 40
0.8750000000000014
 40
1.0
 40
1.0
 40
1.0
 40
1.0
 10
853.2678993683169
 20
594.1703497111872
 30
0.0
 10
853.0868850462556
 20
593.9264961188367
 30
0.0
 10
852.9028547950142
 20
593.6930675103512
 30
0.0
 10
852.5280769607015
 20
593.2459308659083
 30
0.0
 10
852.3373297194993
 20
593.0322241258078
 30
0.0
 10
851.7540481285398
 20
592.4192478472849
 30
0.0
 10
851.3504624049328
 20
592.0480703892091
 30
0.0
 10
850.5090469531742
 20
591.3745083346577
 30
0.0
 10
850.0712243597399
 20
591.0721421155267
 30
0.0
 10
849.3854470699749
 20
590.6666965934281
 30
0.0
 10
849.1520156403211
 20
590.5395750648502
 30
0.0
 10
848.7941967884501
 20
590.360568578584
 30
0.0
 10
848.6740231193659
 20
590.3030361343649
 30
0.0
 10
848.4319979781507
 20
590.1921750938542
 30
0.0
 10
848.3101206653895
 20
590.1388335776027
 30
0.0
 10
847.6963299742314
 20
589.8822237778141
 30
0.0
 10
847.1911920761107
 20
589.7091799929154
 30
0.0
 10
846.1508707030666
 20
589.4198894540178
 30
0.0
 10
845.6156930054088
 20
589.303660904558
 30
0.0
 10
844.5136747581398
 20
589.1217756306818
 30
0.0
 10
843.9468385567873
 20
589.0561318391049
 30
0.0
 10
842.779939131584
 20
588.9701489615395
 30
0.0
 10
842.1798795770169
 20
588.9498200476719
 30
0.0
 10
841.5623921801623
 20
588.9498200476719
 30
0.0
  0
SPLINE
  5
169
330
1F
100
AcDbEntity
  8
1
  6
Continuous
 62
    30
370
    18
100
AcDbSpline
210
0.0
220
0.0
230
1.0
 70
     8
 71
     3
 72
    77
 73
    73
 74
     0
 42
0.000000001
 43
0.0000000001
 40
0.0
 40
0.0
 40
0.0
 40
0.0
 40
0.0312499999999998
 40
0.0312499999999998
 40
0.0624999999999996
 40
0.0624999999999996
 40
0.0937499999999994
 40
0.0937499999999994
 40
0.1015625
 40
0.1015625
 40
0.1093750000000005
 40
0.1093750000000005
 40
0.1250000000000015
 40
0.1250000000000015
 40
0.132812500000002
 40
0.132812500000002
 40
0.1406250000000025
 40
0.1562500000000034
 40
0.1562500000000034
 40
0.1875000000000064
 40
0.1875000000000064
 40
0.2187500000000095
 40
0.2187500000000095
 40
0.2500000000000125
 40
0.2500000000000125
 40
0.2656250000000145
 40
0.2656250000000145
 40
0.273437500000015
 40
0.273437500000015
 40
0.2812500000000157
 40
0.2812500000000157
 40
0.3125000000000169
 40
0.3125000000000169
 40
0.3437500000000182
 40
0.3437500000000182
 40
0.3750000000000194
 40
0.3750000000000194
 40
0.4375000000000219
 40
0.4375000000000219
 40
0.4687500000000232
 40
0.4687500000000232
 40
0.4765625000000231
 40
0.4765625000000231
 40
0.484375000000023
 40
0.484375000000023
 40
0.5000000000000226
 40
0.5000000000000226
 40
0.56250000000002
 40
0.56250000000002
 40
0.6250000000000172
 40
0.6250000000000172
 40
0.6875000000000145
 40
0.6875000000000145
 40
0.7500000000000118
 40
0.7500000000000118
 40
0.7812500000000105
 40
0.7812500000000105
 40
0.7968750000000099
 40
0.7968750000000099
 40
0.8125000000000092
 40
0.8125000000000092
 40
0.8750000000000061
 40
0.8750000000000061
 40
0.9375000000000029
 40
0.9375000000000029
 40
0.9687500000000014
 40
0.9687500000000014
 40
0.9843750000000008
 40
0.9921875000000004
 40
0.9960937500000002
 40
0.9960937500000002
 40
1.0
 40
1.0
 40
1.0
 40
1.0
 10
796.1151196423835
 20
610.4748801330284
 30
0.0
 10
796.1456323226802
 20
610.1482910978159
 30
0.0
 10
796.1861656911291
 20
609.8262064622857
 30
0.0
 10
796.2861621069279
 20
609.1904661139141
 30
0.0
 10
796.3456275333843
 20
608.8768117111465
 30
0.0
 10
796.4826979056701
 20
608.2575132801393
 30
0.0
 10
796.5603043638165
 20
607.9518700917756
 30
0.0
 10
796.6683166250322
 20
607.5746396874176
 30
0.0
 10
796.6904698617825
 20
607.4994350632686
 30
0.0
 10
796.7358717686873
 20
607.3495052043148
 30
0.0
 10
796.759138576397
 20
607.2747253544056
 30
0.0
 10
796.8303461499953
 20
607.0518011956605
 30
0.0
 10
796.8797401885336
 20
606.904904807398
 30
0.0
 10
796.9566083574302
 20
606.6870342970315
 30
0.0
 10
796.9827150296348
 20
606.6147673032085
 30
0.0
 10
797.0357228138786
 20
606.4713527800692
 30
0.0
 10
797.1164067062226
 20
606.2579543388408
 30
0.0
 10
797.2005003430619
 20
606.0495565691024
 30
0.0
 10
797.3729846783901
 20
605.6390341853883
 30
0.0
 10
797.493694827361
 20
605.3737028176945
 30
0.0
 10
797.7454804444276
 20
604.8580405614605
 30
0.0
 10
797.8765586386513
 20
604.6077140886464
 30
0.0
 10
798.1482624195702
 20
604.1207697389439
 30
0.0
 10
798.2888897827313
 20
603.8841547302985
 30
0.0
 10
798.506515915234
 20
603.5387610791506
 30
0.0
 10
798.580173422938
 20
603.4252200089143
 30
0.0
 10
798.6922834493013
 20
603.2572150983108
 30
0.0
 10
798.7298736561488
 20
603.2016744495922
 30
0.0
 10
798.8053660429254
 20
603.0916622819678
 30
0.0
 10
798.8432866148055
 20
603.0371631514753
 30
0.0
 10
799.0337386096271
 20
602.767129695477
 30
0.0
 10
799.1888124263807
 20
602.5589659162969
 30
0.0
 10
799.5038880975987
 20
602.1567827776985
 30
0.0
 10
799.6638910641485
 20
601.9627670470137
 30
0.0
 10
799.9884387260063
 20
601.587649650035
 30
0.0
 10
800.152984165653
 20
601.4065504050324
 30
0.0
 10
800.6529730637656
 20
600.8811561022803
 30
0.0
 10
800.994746464133
 20
600.5546942927516
 30
0.0
 10
801.5187481888487
 20
600.0964299880972
 30
0.0
 10
801.6953119540582
 20
599.9489327615468
 30
0.0
 10
801.918288282271
 20
599.7708099697223
 30
0.0
 10
801.9629972148713
 20
599.7354981111107
 30
0.0
 10
802.0526402691156
 20
599.6654927236874
 30
0.0
 10
802.0975696026484
 20
599.6308033669309
 30
0.0
 10
802.2324532762423
 20
599.5278321566744
 30
0.0
 10
802.3225823986168
 20
599.460584669395
 30
0.0
 10
802.77423286837
 20
599.1310998599388
 30
0.0
 10
803.1387592255348
 20
598.8890423097364
 30
0.0
 10
803.8736619655847
 20
598.4430381556615
 30
0.0
 10
804.2440407562035
 20
598.2391129258077
 30
0.0
 10
804.9902902516365
 20
597.8660598713941
 30
0.0
 10
805.3661622790801
 20
597.6969440386689
 30
0.0
 10
806.1231823028675
 20
597.3912819313872
 30
0.0
 10
806.5043310027778
 20
597.2547424922162
 30
0.0
 10
807.079934040384
 20
597.0733024512331
 30
0.0
 10
807.2724492102736
 20
597.0167230945739
 30
0.0
 10
807.5621905426945
 20
596.9376198550259
 30
0.0
 10
807.6589473329965
 20
596.912210580768
 30
0.0
 10
807.8524493881168
 20
596.8633847335307
 30
0.0
 10
807.9492353599893
 20
596.8399566324296
 30
0.0
 10
808.4333424826262
 20
596.727681278922
 30
0.0
 10
808.8211948706385
 20
596.653404365782
 30
0.0
 10
809.5981064328106
 20
596.5348461958299
 30
0.0
 10
809.9871654580699
 20
596.4905674488523
 30
0.0
 10
810.5717263473034
 20
596.4462768009812
 30
0.0
 10
810.7667421784059
 20
596.4352055521229
 30
0.0
 10
811.059519123881
 20
596.4241290815023
 30
0.0
 10
811.2059709129817
 20
596.4199738419152
 30
0.0
 10
811.3769444897391
 20
596.4175487178427
 30
0.0
 10
811.4502433924731
 20
596.4170290452432
 30
0.0
 10
811.4991148047251
 20
596.4167981439875
 30
0.0
 10
811.5235905967382
 20
596.4167405981447
 30
0.0
 10
811.5479106537052
 20
596.4167405981447
 30
0.0
  0
SPLINE
  5
16A
330
1F
100
AcDbEntity
  8
1
  6
Continuous
 62
    30
370
    13
100
AcDbSpline
210
0.0
220
0.0
230
1.0
 70
     8
 71
     3
 72
    75
 73
    71
 74
     0
 42
0.000000001
 43
0.0000000001
 40
0.0
 40
0.0
 40
0.0
 40
0.0
 40
0.0039062499999999
 40
0.0039062499999999
 40
0.0078125
 40
0.0156249999999999
 40
0.0312499999999999
 40
0.0312499999999999
 40
0.0624999999999996
 40
0.0624999999999996
 40
0.1249999999999991
 40
0.1249999999999991
 40
0.1874999999999986
 40
0.1874999999999986
 40
0.2031249999999986
 40
0.2031249999999986
 40
0.2187499999999987
 40
0.2187499999999987
 40
0.2499999999999989
 40
0.2499999999999989
 40
0.3124999999999993
 40
0.3124999999999993
 40
0.3749999999999998
 40
0.3749999999999998
 40
0.4375000000000003
 40
0.4375000000000003
 40
0.5000000000000008
 40
0.5000000000000008
 40
0.515625000000001
 40
0.515625000000001
 40
0.5312500000000011
 40
0.5312500000000011
 40
0.5625000000000018
 40
0.5625000000000018
 40
0.6250000000000029
 40
0.6250000000000029
 40
0.6562500000000031
 40
0.6562500000000031
 40
0.6875000000000033
 40
0.6875000000000033
 40
0.7187500000000036
 40
0.7187500000000036
 40
0.7343750000000036
 40
0.7343750000000036
 40
0.7421875000000038
 40
0.7421875000000038
 40
0.7500000000000038
 40
0.7500000000000038
 40
0.7812500000000029
 40
0.7812500000000029
 40
0.812500000000002
 40
0.812500000000002
 40
0.8437500000000011
 40
0.8437500000000011
 40
0.8593750000000001
 40
0.8671875000000002
 40
0.8671875000000002
 40
0.8750000000000004
 40
0.8750000000000004
 40
0.8906249999999997
 40
0.8906249999999997
 40
0.8984374999999993
 40
0.8984374999999993
 40
0.9062499999999991
 40
0.9062499999999991
 40
0.9374999999999994
 40
0.9374999999999994
 40
0.9687499999999997
 40
0.9687499999999997
 40
1.0
 40
1.0
 40
1.0
 40
1.0
 10
811.5479106537052
 20
596.4167405981447
 30
0.0
 10
811.5144138057266
 20
596.4167405981447
 30
0.0
 10
811.4806708944371
 20
596.416795119567
 30
0.0
 10
811.4132978939557
 20
596.4170140749111
 30
0.0
 10
811.3122487393296
 20
596.4175069121653
 30
0.0
 10
811.0765395819943
 20
596.4198071041116
 30
0.0
 10
810.8746262031683
 20
596.4237487455808
 30
0.0
 10
810.4709617033208
 20
596.4342565748487
 30
0.0
 10
810.2020683239161
 20
596.4447602329794
 30
0.0
 10
809.3960247789457
 20
596.4867836692348
 30
0.0
 10
808.8595103694513
 20
596.5287999698321
 30
0.0
 10
807.7881330265964
 20
596.6412990481411
 30
0.0
 10
807.2532701209155
 20
596.711779606976
 30
0.0
 10
806.585712523561
 20
596.8182962362305
 30
0.0
 10
806.4522521200795
 20
596.8405217789718
 30
0.0
 10
806.1854335245049
 20
596.8868388835707
 30
0.0
 10
806.0520223820804
 20
596.9109406146317
 30
0.0
 10
805.6524042506121
 20
596.9859929765505
 30
0.0
 10
805.3868336102978
 20
597.0396817342055
 30
0.0
 10
804.5926690956646
 20
597.2118752459256
 30
0.0
 10
804.0666181197481
 20
597.3414859859646
 30
0.0
 10
803.0215247757278
 20
597.6316932013414
 30
0.0
 10
802.5024812636971
 20
597.7922834928528
 30
0.0
 10
801.471783545502
 20
598.1465495479259
 30
0.0
 10
800.9601273077459
 20
598.3402146083112
 30
0.0
 10
799.9447882650875
 20
598.7637260772623
 30
0.0
 10
799.4411018585216
 20
598.9935536622165
 30
0.0
 10
798.8170202646902
 20
599.3062751806716
 30
0.0
 10
798.6924811361503
 20
599.3700957187823
 30
0.0
 10
798.4439747685334
 20
599.5003797656161
 30
0.0
 10
798.3199231987223
 20
599.566891121677
 30
0.0
 10
797.9497552089261
 20
599.7699266227839
 30
0.0
 10
797.7053667087227
 20
599.9100757442047
 30
0.0
 10
796.979717703942
 20
600.3456503935281
 30
0.0
 10
796.5059394243032
 20
600.6561301926988
 30
0.0
 10
795.8121550434333
 20
601.1560969458935
 30
0.0
 10
795.583715167668
 20
601.3284768388526
 30
0.0
 10
795.1329142429704
 20
601.6856225517583
 30
0.0
 10
794.9105521711883
 20
601.8703861474281
 30
0.0
 10
794.4724508680827
 20
602.2534690951557
 30
0.0
 10
794.2567101170611
 20
602.4517851371252
 30
0.0
 10
793.9385844464425
 20
602.7605409928211
 30
0.0
 10
793.8334580872271
 20
602.865342688351
 30
0.0
 10
793.67722056926
 20
603.0255393233617
 30
0.0
 10
793.6253931090188
 20
603.079429052139
 30
0.0
 10
793.5225441119018
 20
603.1879072801979
 30
0.0
 10
793.4714842671071
 20
603.2425347636494
 30
0.0
 10
793.2180398741837
 20
603.5176493152005
 30
0.0
 10
793.0212109725445
 20
603.7440579373455
 30
0.0
 10
792.6403482997586
 20
604.2105614575485
 30
0.0
 10
792.4563118763219
 20
604.4506533579404
 30
0.0
 10
792.1022389906992
 20
604.9458690628248
 30
0.0
 10
791.9321984456474
 20
605.2009882441105
 30
0.0
 10
791.688814945925
 20
605.5962567180818
 30
0.0
 10
791.5700473592849
 20
605.7970438006947
 30
0.0
 10
791.4559402509489
 20
606.0028669536915
 30
0.0
 10
791.3809393775649
 20
606.1412405571648
 30
0.0
 10
791.3439481953541
 20
606.2110571976712
 30
0.0
 10
791.2348951994462
 20
606.4217961876116
 30
0.0
 10
791.1647205108625
 20
606.5640561969781
 30
0.0
 10
791.0634230605257
 20
606.7802241266669
 30
0.0
 10
791.0303435769727
 20
606.8526924287428
 30
0.0
 10
790.9657375916585
 20
606.9981067441565
 30
0.0
 10
790.9341870207685
 20
607.0711037079332
 30
0.0
 10
790.7802342996052
 20
607.4375533143611
 30
0.0
 10
790.6692174118906
 20
607.7353942199439
 30
0.0
 10
790.4726799943085
 20
608.3409353226581
 30
0.0
 10
790.3871559682299
 20
608.648634054347
 30
0.0
 10
790.2432454112844
 20
609.2745638653581
 30
0.0
 10
790.1848534732277
 20
609.5927926737171
 30
0.0
 10
790.1411360250977
 20
609.9167405981447
 30
0.0
  0
SPLINE
  5
16B
330
1F
100
AcDbEntity
  8
1
  6
Continuous
 62
    30
370
    18
100
AcDbSpline
210
0.0
220
0.0
230
1.0
 70
     8
 71
     3
 72
    77
 73
    73
 74
     0
 42
0.000000001
 43
0.0000000001
 40
0.0
 40
0.0
 40
0.0
 40
0.0
 40
0.0039062499999999
 40
0.0039062499999999
 40
0.0078124999999999
 40
0.0156249999999999
 40
0.0312500000000001
 40
0.0312500000000001
 40
0.0625000000000003
 40
0.0625000000000003
 40
0.125000000000001
 40
0.125000000000001
 40
0.1875000000000017
 40
0.1875000000000017
 40
0.2031250000000016
 40
0.2031250000000016
 40
0.2187500000000013
 40
0.2187500000000013
 40
0.2500000000000008
 40
0.2500000000000008
 40
0.3124999999999999
 40
0.3124999999999999
 40
0.374999999999999
 40
0.374999999999999
 40
0.4374999999999981
 40
0.4374999999999981
 40
0.4999999999999971
 40
0.4999999999999971
 40
0.5156249999999973
 40
0.5156249999999973
 40
0.5234374999999973
 40
0.5234374999999973
 40
0.5312499999999976
 40
0.5312499999999976
 40
0.5624999999999997
 40
0.5624999999999997
 40
0.625000000000004
 40
0.625000000000004
 40
0.6562500000000062
 40
0.6562500000000062
 40
0.6875000000000083
 40
0.6875000000000083
 40
0.7187500000000104
 40
0.7187500000000104
 40
0.7265625000000112
 40
0.7265625000000112
 40
0.734375000000012
 40
0.734375000000012
 40
0.7500000000000124
 40
0.7500000000000124
 40
0.7812500000000122
 40
0.7812500000000122
 40
0.8125000000000122
 40
0.8125000000000122
 40
0.8437500000000121
 40
0.8437500000000121
 40
0.8593750000000114
 40
0.8671875000000111
 40
0.8671875000000111
 40
0.8750000000000109
 40
0.8750000000000109
 40
0.8906250000000102
 40
0.8906250000000102
 40
0.89843750000001
 40
0.89843750000001
 40
0.9062500000000098
 40
0.9062500000000098
 40
0.9375000000000066
 40
0.9375000000000066
 40
0.9687500000000032
 40
0.9687500000000032
 40
1.0
 40
1.0
 40
1.0
 40
1.0
 10
811.5479106537052
 20
596.4167405981447
 30
0.0
 10
811.5722307106723
 20
596.4167405981447
 30
0.0
 10
811.5967065026855
 20
596.4167981439874
 30
0.0
 10
811.6455779149375
 20
596.4170290452432
 30
0.0
 10
811.7188768176715
 20
596.4175487178427
 30
0.0
 10
811.8898503944289
 20
596.4199738419152
 30
0.0
 10
812.0363021835295
 20
596.4241290815024
 30
0.0
 10
812.3290791290046
 20
596.4352055521229
 30
0.0
 10
812.5240949601072
 20
596.4462768009812
 30
0.0
 10
813.1086558493407
 20
596.4905674488523
 30
0.0
 10
813.4977148746
 20
596.5348461958299
 30
0.0
 10
814.2746264367721
 20
596.653404365782
 30
0.0
 10
814.6624788247843
 20
596.727681278922
 30
0.0
 10
815.1465859474213
 20
596.8399566324294
 30
0.0
 10
815.2433719192937
 20
596.8633847335307
 30
0.0
 10
815.4368739744141
 20
596.9122105807681
 30
0.0
 10
815.5336307647161
 20
596.9376198550259
 30
0.0
 10
815.8233720971369
 20
597.0167230945739
 30
0.0
 10
816.0158872670266
 20
597.0733024512331
 30
0.0
 10
816.5914903046329
 20
597.2547424922162
 30
0.0
 10
816.9726390045431
 20
597.3912819313873
 30
0.0
 10
817.7296590283305
 20
597.6969440386689
 30
0.0
 10
818.1055310557741
 20
597.8660598713941
 30
0.0
 10
818.8517805512071
 20
598.2391129258077
 30
0.0
 10
819.2221593418259
 20
598.4430381556615
 30
0.0
 10
819.9570620818757
 20
598.8890423097364
 30
0.0
 10
820.3215884390407
 20
599.1310998599388
 30
0.0
 10
820.7732389087938
 20
599.4605846693948
 30
0.0
 10
820.8633680311683
 20
599.5278321566744
 30
0.0
 10
820.9982517047622
 20
599.6308033669309
 30
0.0
 10
821.043181038295
 20
599.6654927236873
 30
0.0
 10
821.1328240925393
 20
599.7354981111107
 30
0.0
 10
821.1775330251396
 20
599.7708099697223
 30
0.0
 10
821.4005093533524
 20
599.9489327615468
 30
0.0
 10
821.577073118562
 20
600.0964299880972
 30
0.0
 10
822.1010748432776
 20
600.5546942927516
 30
0.0
 10
822.442848243645
 20
600.8811561022803
 30
0.0
 10
822.9428371417576
 20
601.4065504050324
 30
0.0
 10
823.1073825814043
 20
601.5876496500349
 30
0.0
 10
823.4319302432622
 20
601.9627670470138
 30
0.0
 10
823.5919332098118
 20
602.1567827776985
 30
0.0
 10
823.9070088810299
 20
602.5589659162969
 30
0.0
 10
824.0620826977836
 20
602.767129695477
 30
0.0
 10
824.2525346926051
 20
603.0371631514753
 30
0.0
 10
824.2904552644853
 20
603.091662281968
 30
0.0
 10
824.3659476512619
 20
603.2016744495924
 30
0.0
 10
824.4035378581094
 20
603.2572150983108
 30
0.0
 10
824.5156478844727
 20
603.4252200089143
 30
0.0
 10
824.5893053921766
 20
603.5387610791506
 30
0.0
 10
824.8069315246793
 20
603.8841547302985
 30
0.0
 10
824.9475588878405
 20
604.1207697389439
 30
0.0
 10
825.2192626687593
 20
604.6077140886464
 30
0.0
 10
825.350340862983
 20
604.8580405614605
 30
0.0
 10
825.6021264800497
 20
605.3737028176945
 30
0.0
 10
825.7228366290205
 20
605.6390341853883
 30
0.0
 10
825.8953209643488
 20
606.0495565691024
 30
0.0
 10
825.9794146011881
 20
606.2579543388408
 30
0.0
 10
826.060098493532
 20
606.4713527800692
 30
0.0
 10
826.1131062777758
 20
606.6147673032085
 30
0.0
 10
826.1392129499804
 20
606.6870342970315
 30
0.0
 10
826.216081118877
 20
606.904904807398
 30
0.0
 10
826.2654751574153
 20
607.0518011956606
 30
0.0
 10
826.3366827310135
 20
607.2747253544056
 30
0.0
 10
826.3599495387234
 20
607.3495052043149
 30
0.0
 10
826.4053514456282
 20
607.4994350632686
 30
0.0
 10
826.4275046823785
 20
607.5746396874176
 30
0.0
 10
826.5355169435941
 20
607.9518700917756
 30
0.0
 10
826.6131234017406
 20
608.2575132801393
 30
0.0
 10
826.7501937740263
 20
608.8768117111465
 30
0.0
 10
826.8096592004828
 20
609.1904661139142
 30
0.0
 10
826.9096556162816
 20
609.8262064622857
 30
0.0
 10
826.9501889847305
 20
610.1482910978159
 30
0.0
 10
826.9807016650271
 20
610.4748801330284
 30
0.0
  0
SPLINE
  5
16C
330
1F
100
AcDbEntity
  8
1
  6
Continuous
 62
    30
370
    13
100
AcDbSpline
210
0.0
220
0.0
230
1.0
 70
     8
 71
     3
 72
    75
 73
    71
 74
     0
 42
0.000000001
 43
0.0000000001
 40
0.0
 40
0.0
 40
0.0
 40
0.0
 40
0.0312499999999988
 40
0.0312499999999988
 40
0.0624999999999975
 40
0.0624999999999975
 40
0.0937499999999963
 40
0.0937499999999963
 40
0.1015624999999956
 40
0.1015624999999956
 40
0.1093749999999949
 40
0.1093749999999949
 40
0.1249999999999934
 40
0.1249999999999934
 40
0.1328124999999934
 40
0.1328124999999934
 40
0.1406249999999933
 40
0.1562499999999921
 40
0.1562499999999921
 40
0.1874999999999909
 40
0.1874999999999909
 40
0.2187499999999896
 40
0.2187499999999896
 40
0.2499999999999884
 40
0.2499999999999884
 40
0.2578124999999883
 40
0.2578124999999883
 40
0.2656249999999883
 40
0.2656249999999883
 40
0.2812499999999886
 40
0.2812499999999886
 40
0.3124999999999887
 40
0.3124999999999887
 40
0.3437499999999888
 40
0.3437499999999888
 40
0.374999999999989
 40
0.374999999999989
 40
0.4374999999999902
 40
0.4374999999999902
 40
0.4687499999999908
 40
0.4687499999999908
 40
0.4843749999999911
 40
0.4843749999999911
 40
0.4999999999999915
 40
0.4999999999999915
 40
0.5624999999999923
 40
0.5624999999999923
 40
0.6249999999999931
 40
0.6249999999999931
 40
0.687499999999994
 40
0.687499999999994
 40
0.7499999999999949
 40
0.7499999999999949
 40
0.7812499999999954
 40
0.7812499999999954
 40
0.7968749999999958
 40
0.7968749999999958
 40
0.812499999999996
 40
0.812499999999996
 40
0.8749999999999972
 40
0.8749999999999972
 40
0.9374999999999984
 40
0.9374999999999984
 40
0.9687499999999991
 40
0.9687499999999991
 40
0.9843749999999996
 40
0.9921874999999997
 40
0.9960937499999998
 40
0.9960937499999998
 40
1.0
 40
1.0
 40
1.0
 40
1.0
 10
832.954685282313
 20
609.9167405981447
 30
0.0
 10
832.9109678341829
 20
609.5927926737172
 30
0.0
 10
832.8525758961262
 20
609.2745638653581
 30
0.0
 10
832.7086653391808
 20
608.648634054347
 30
0.0
 10
832.6231413131021
 20
608.3409353226581
 30
0.0
 10
832.4266038955201
 20
607.7353942199439
 30
0.0
 10
832.3155870078053
 20
607.437553314361
 30
0.0
 10
832.1616342866422
 20
607.0711037079332
 30
0.0
 10
832.1300837157521
 20
606.9981067441565
 30
0.0
 10
832.0654777304379
 20
606.8526924287428
 30
0.0
 10
832.032398246885
 20
606.7802241266668
 30
0.0
 10
831.9311007965482
 20
606.5640561969781
 30
0.0
 10
831.8609261079644
 20
606.4217961876116
 30
0.0
 10
831.7518731120565
 20
606.2110571976712
 30
0.0
 10
831.7148819298458
 20
606.1412405571648
 30
0.0
 10
831.6398810564617
 20
606.0028669536916
 30
0.0
 10
831.5257739481258
 20
605.7970438006947
 30
0.0
 10
831.4070063614857
 20
605.5962567180818
 30
0.0
 10
831.1636228617633
 20
605.2009882441105
 30
0.0
 10
830.9935823167114
 20
604.9458690628248
 30
0.0
 10
830.6395094310886
 20
604.4506533579404
 30
0.0
 10
830.455473007652
 20
604.2105614575485
 30
0.0
 10
830.0746103348661
 20
603.7440579373455
 30
0.0
 10
829.877781433227
 20
603.5176493152005
 30
0.0
 10
829.6243370403034
 20
603.2425347636494
 30
0.0
 10
829.5732771955088
 20
603.1879072801979
 30
0.0
 10
829.4704281983919
 20
603.079429052139
 30
0.0
 10
829.4186007381505
 20
603.0255393233617
 30
0.0
 10
829.2623632201835
 20
602.865342688351
 30
0.0
 10
829.157236860968
 20
602.7605409928211
 30
0.0
 10
828.8391111903496
 20
602.4517851371252
 30
0.0
 10
828.623370439328
 20
602.2534690951557
 30
0.0
 10
828.1852691362224
 20
601.8703861474281
 30
0.0
 10
827.9629070644403
 20
601.6856225517583
 30
0.0
 10
827.5121061397426
 20
601.3284768388526
 30
0.0
 10
827.2836662639774
 20
601.1560969458935
 30
0.0
 10
826.5898818831075
 20
600.6561301926988
 30
0.0
 10
826.1161036034686
 20
600.3456503935281
 30
0.0
 10
825.3904545986878
 20
599.9100757442047
 30
0.0
 10
825.1460660984844
 20
599.7699266227838
 30
0.0
 10
824.7758981086884
 20
599.566891121677
 30
0.0
 10
824.6518465388772
 20
599.5003797656161
 30
0.0
 10
824.4033401712603
 20
599.3700957187823
 30
0.0
 10
824.2788010427204
 20
599.3062751806716
 30
0.0
 10
823.654719448889
 20
598.9935536622165
 30
0.0
 10
823.1510330423231
 20
598.7637260772623
 30
0.0
 10
822.1356939996647
 20
598.3402146083113
 30
0.0
 10
821.6240377619087
 20
598.1465495479259
 30
0.0
 10
820.5933400437135
 20
597.7922834928528
 30
0.0
 10
820.0742965316828
 20
597.6316932013414
 30
0.0
 10
819.0292031876625
 20
597.3414859859646
 30
0.0
 10
818.5031522117459
 20
597.2118752459256
 30
0.0
 10
817.7089876971128
 20
597.0396817342055
 30
0.0
 10
817.4434170567985
 20
596.9859929765505
 30
0.0
 10
817.0437989253302
 20
596.9109406146317
 30
0.0
 10
816.9103877829057
 20
596.8868388835707
 30
0.0
 10
816.6435691873311
 20
596.8405217789718
 30
0.0
 10
816.5101087838495
 20
596.8182962362305
 30
0.0
 10
815.842551186495
 20
596.711779606976
 30
0.0
 10
815.3076882808142
 20
596.6412990481411
 30
0.0
 10
814.2363109379593
 20
596.5287999698321
 30
0.0
 10
813.6997965284648
 20
596.4867836692348
 30
0.0
 10
812.8937529834944
 20
596.4447602329794
 30
0.0
 10
812.6248596040898
 20
596.4342565748487
 30
0.0
 10
812.2211951042422
 20
596.423748745581
 30
0.0
 10
812.0192817254162
 20
596.4198071041116
 30
0.0
 10
811.7835725680809
 20
596.4175069121653
 30
0.0
 10
811.6825234134549
 20
596.4170140749111
 30
0.0
 10
811.6151504129734
 20
596.416795119567
 30
0.0
 10
811.581407501684
 20
596.4167405981447
 30
0.0
 10
811.5479106537052
 20
596.4167405981447
 30
0.0
  0
SPLINE
  5
16D
330
1F
100
AcDbEntity
  8
1
  6
Continuous
 62
    30
370
    18
100
AcDbSpline
210
0.0
220
0.0
230
1.0
 70
     8
 71
     3
 72
    24
 73
    20
 74
     0
 42
0.000000001
 43
0.0000000001
 40
0.0
 40
0.0
 40
0.0
 40
0.0
 40
0.0250768146981942
 40
0.0776567446092681
 40
0.1316102500518281
 40
0.1852292634455483
 40
0.2425602203413779
 40
0.3013170456124866
 40
0.3614642877365593
 40
0.4229091207032034
 40
0.485530503077542
 40
0.5491796786607822
 40
0.6136833894475942
 40
0.6787562898156331
 40
0.7454693630030369
 40
0.8142270282101587
 40
0.8845837796072522
 40
0.9564759714498241
 40
1.0
 40
1.0
 40
1.0
 40
1.0
 10
363.244742213005
 20
189.1955516406933
 30
0.0
 10
363.1382234293011
 20
189.1286197366362
 30
0.0
 10
362.8045051913898
 20
188.9185905904433
 30
0.0
 10
362.2131613241957
 20
188.5452205417812
 30
0.0
 10
361.473433580994
 20
188.0739856850284
 30
0.0
 10
360.6910361570117
 20
187.5676605363947
 30
0.0
 10
359.8709593527832
 20
187.0270787143109
 30
0.0
 10
359.0062731671984
 20
186.4444724262436
 30
0.0
 10
358.1119172714282
 20
185.8266418824735
 30
0.0
 10
357.1923005129599
 20
185.173255738853
 30
0.0
 10
356.2526972721631
 20
184.4844414728906
 30
0.0
 10
355.29897815957
 20
183.7606573779367
 30
0.0
 10
354.337913179317
 20
183.0030989643354
 30
0.0
 10
353.37065499456
 20
182.2082393728835
 30
0.0
 10
352.3947568068853
 20
181.3713716826953
 30
0.0
 10
351.4080425118101
 20
180.4878352648005
 30
0.0
 10
350.4153832144275
 20
179.5565245520558
 30
0.0
 10
349.5574643892592
 20
178.7171312860642
 30
0.0
 10
349.0389722847695
 20
178.1811301740765
 30
0.0
 10
348.8451590554644
 20
177.9771950607886
 30
0.0
  0
SPLINE
  5
16E
330
1F
100
AcDbEntity
  8
1
  6
Continuous
 62
    30
370
    18
100
AcDbSpline
210
0.0
220
0.0
230
1.0
 70
     8
 71
     3
 72
    24
 73
    20
 74
     0
 42
0.000000001
 43
0.0000000001
 40
0.0
 40
0.0
 40
0.0
 40
0.0
 40
0.0250768146981179
 40
0.0776567446092268
 40
0.1316102500517507
 40
0.1852292634454704
 40
0.2425602203413046
 40
0.3013170456124181
 40
0.3614642877364804
 40
0.4229091207031327
 40
0.4855305030774678
 40
0.5491796786606948
 40
0.6136833894475213
 40
0.6787562898155578
 40
0.7454693630029308
 40
0.8142270282100494
 40
0.884583779607141
 40
0.9564759714497081
 40
1.0
 40
1.0
 40
1.0
 40
1.0
 10
397.0830474584773
 20
106.4863805374304
 30
0.0
 10
397.1895662421808
 20
106.5533124414873
 30
0.0
 10
397.5232844800919
 20
106.7633415876801
 30
0.0
 10
398.1146283472856
 20
107.1367116363419
 30
0.0
 10
398.8543560904873
 20
107.6079464930947
 30
0.0
 10
399.6367535144694
 20
108.1142716417283
 30
0.0
 10
400.4568303186979
 20
108.6548534638121
 30
0.0
 10
401.3215165042827
 20
109.2374597518793
 30
0.0
 10
402.2158724000529
 20
109.8552902956494
 30
0.0
 10
403.1354891585212
 20
110.5086764392699
 30
0.0
 10
404.075092399318
 20
111.1974907052323
 30
0.0
 10
405.028811511911
 20
111.9212748001861
 30
0.0
 10
405.9898764921641
 20
112.6788332137874
 30
0.0
 10
406.957134676921
 20
113.4736928052391
 30
0.0
 10
407.9330328645956
 20
114.3105604954272
 30
0.0
 10
408.9197471596706
 20
115.1940969133218
 30
0.0
 10
409.9124064570531
 20
116.1254076260664
 30
0.0
 10
410.7703252822221
 20
116.9648008920584
 30
0.0
 10
411.2888173867121
 20
117.5008020040467
 30
0.0
 10
411.4826306160179
 20
117.7047371173351
 30
0.0
  0
SPLINE
  5
16F
330
1F
100
AcDbEntity
  8
1
  6
Continuous
 62
    30
370
    18
100
AcDbSpline
210
0.0
220
0.0
230
1.0
 70
     8
 71
     3
 72
    24
 73
    20
 74
     0
 42
0.000000001
 43
0.0000000001
 40
0.0
 40
0.0
 40
0.0
 40
0.0
 40
0.0457507742293172
 40
0.119604447849801
 40
0.1921403802049588
 40
0.2632191980247355
 40
0.3327725604314699
 40
0.400818701895637
 40
0.4663911353098374
 40
0.5303749333175722
 40
0.5937064739618482
 40
0.6561648167420254
 40
0.7175537950511568
 40
0.7777084766306507
 40
0.8364992088086275
 40
0.8862774003388053
 40
0.9346346691512493
 40
0.9847309932071775
 40
1.0
 40
1.0
 40
1.0
 40
1.0
 10
348.8449429823353
 20
117.7045213874147
 30
0.0
 10
349.0486641236923
 20
117.4901333851109
 30
0.0
 10
349.5861558271327
 20
116.9348685570108
 30
0.0
 10
350.4743162831397
 20
116.0675909723596
 30
0.0
 10
351.4989944851195
 20
115.1097603401015
 30
0.0
 10
352.5229240483146
 20
114.1976790647341
 30
0.0
 10
353.5406538486441
 20
113.3309217160957
 30
0.0
 10
354.5440783089964
 20
112.5133995694704
 30
0.0
 10
355.5285105998444
 20
111.7446992041961
 30
0.0
 10
356.4934693824909
 20
111.0190019222844
 30
0.0
 10
357.4430651601049
 20
110.3288052551762
 30
0.0
 10
358.3761085330087
 20
109.6712671487215
 30
0.0
 10
359.2859753362217
 20
109.0476040030891
 30
0.0
 10
360.1668633726987
 20
108.4585104901771
 30
0.0
 10
360.9766850511741
 20
107.9284400216046
 30
0.0
 10
361.7159058121765
 20
107.4529735609208
 30
0.0
 10
362.3932790002104
 20
107.0227830625157
 30
0.0
 10
362.9022095552488
 20
106.701818022525
 30
0.0
 10
363.1806264482041
 20
106.5266445864197
 30
0.0
 10
363.2451303805339
 20
106.4860945667363
 30
0.0
  0
SPLINE
  5
170
330
1F
100
AcDbEntity
  8
1
  6
Continuous
 62
    30
370
    18
100
AcDbSpline
210
0.0
220
0.0
230
1.0
 70
     8
 71
     3
 72
    24
 73
    20
 74
     0
 42
0.000000001
 43
0.0000000001
 40
0.0
 40
0.0
 40
0.0
 40
0.0
 40
0.0457507742293061
 40
0.1196044478497824
 40
0.1921403802049446
 40
0.2632191980247325
 40
0.3327725604314712
 40
0.4008187018956372
 40
0.4663911353098459
 40
0.5303749333175578
 40
0.5937064739618285
 40
0.656164816742002
 40
0.7175537950511389
 40
0.7777084766306225
 40
0.8364992088086131
 40
0.8862774003387931
 40
0.9346346691512253
 40
0.9847309932071139
 40
1.0
 40
1.0
 40
1.0
 40
1.0
 10
411.4828466891468
 20
177.977410790709
 30
0.0
 10
411.2791255477898
 20
178.1917987930128
 30
0.0
 10
410.7416338443495
 20
178.7470636211127
 30
0.0
 10
409.8534733883426
 20
179.6143412057639
 30
0.0
 10
408.8287951863627
 20
180.572171838022
 30
0.0
 10
407.8048656231676
 20
181.4842531133895
 30
0.0
 10
406.787135822838
 20
182.351010462028
 30
0.0
 10
405.7837113624856
 20
183.1685326086533
 30
0.0
 10
404.7992790716377
 20
183.9372329739276
 30
0.0
 10
403.8343202889913
 20
184.6629302558392
 30
0.0
 10
402.8847245113774
 20
185.3531269229473
 30
0.0
 10
401.9516811384736
 20
186.010665029402
 30
0.0
 10
401.0418143352607
 20
186.6343281750344
 30
0.0
 10
400.1609262987836
 20
187.2234216879464
 30
0.0
 10
399.3511046203081
 20
187.7534921565189
 30
0.0
 10
398.6118838593058
 20
188.2289586172027
 30
0.0
 10
397.9345106712721
 20
188.6591491156076
 30
0.0
 10
397.4255801162338
 20
188.9801141555985
 30
0.0
 10
397.1471632232781
 20
189.1552875917038
 30
0.0
 10
397.0826592909482
 20
189.1958376113874
 30
0.0
  0
SPLINE
  5
171
330
1F
100
AcDbEntity
  8
1
  6
Continuous
 62
    30
370
    18
100
AcDbSpline
210
0.0
220
0.0
230
1.0
 70
     8
 71
     3
 72
    20
 73
    16
 74
     0
 42
0.000000001
 43
0.0000000001
 40
0.0
 40
0.0
 40
0.0
 40
0.0
 40
0.0398244550298503
 40
0.0922550460724906
 40
0.1537598431211797
 40
0.2303787099648241
 40
0.3336413642856796
 40
0.428702719454254
 40
0.5166669635386745
 40
0.6095689777384268
 40
0.6984791581390507
 40
0.7853086923795214
 40
0.8709629626024112
 40
0.9558105157189815
 40
1.0
 40
1.0
 40
1.0
 40
1.0
 10
370.9173132446808
 20
192.8999360674396
 30
0.0
 10
370.8043425433201
 20
192.8767562563842
 30
0.0
 10
370.5498448234202
 20
192.8200668218095
 30
0.0
 10
370.1588910592645
 20
192.7120001574948
 30
0.0
 10
369.7024095158703
 20
192.565856804725
 30
0.0
 10
369.1503625374142
 20
192.3624860817738
 30
0.0
 10
368.5300162571976
 20
192.1033848183473
 30
0.0
 10
367.8678522696532
 20
191.7983068533375
 30
0.0
 10
367.205754567201
 20
191.4714871606467
 30
0.0
 10
366.5302417260393
 20
191.1190924577096
 30
0.0
 10
365.827827121914
 20
190.7349650252522
 30
0.0
 10
365.1167967529593
 20
190.3304059332644
 30
0.0
 10
364.3904775383049
 20
189.9016364861134
 30
0.0
 10
363.7665022289327
 20
189.5226103198474
 30
0.0
 10
363.3802170285845
 20
189.2796780099885
 30
0.0
 10
363.2467540764578
 20
189.1949635067567
 30
0.0
  0
SPLINE
  5
172
330
1F
100
AcDbEntity
  8
1
  6
Continuous
 62
    30
370
    18
100
AcDbSpline
210
0.0
220
0.0
230
1.0
 70
     8
 71
     3
 72
    20
 73
    16
 74
     0
 42
0.000000001
 43
0.0000000001
 40
0.0
 40
0.0
 40
0.0
 40
0.0
 40
0.0398244550296621
 40
0.0922550460723573
 40
0.1537598431208949
 40
0.2303787099645012
 40
0.3336413642853793
 40
0.4287027194540313
 40
0.5166669635383628
 40
0.6095689777381342
 40
0.6984791581389552
 40
0.7853086923793424
 40
0.8709629626022338
 40
0.9558105157188024
 40
1.0
 40
1.0
 40
1.0
 40
1.0
 10
389.4104764268014
 20
102.7819961106841
 30
0.0
 10
389.5234471281617
 20
102.8051759217394
 30
0.0
 10
389.7779448480614
 20
102.861865356314
 30
0.0
 10
390.1688986122163
 20
102.9699320206284
 30
0.0
 10
390.6253801556102
 20
103.1160753733981
 30
0.0
 10
391.1774271340662
 20
103.3194460963491
 30
0.0
 10
391.7977734142826
 20
103.5785473597755
 30
0.0
 10
392.4599374018273
 20
103.8836253247853
 30
0.0
 10
393.1220351042793
 20
104.2104450174759
 30
0.0
 10
393.7975479454412
 20
104.5628397204132
 30
0.0
 10
394.4999625495666
 20
104.9469671528706
 30
0.0
 10
395.2109929185218
 20
105.3515262448586
 30
0.0
 10
395.9373121331758
 20
105.7802956920094
 30
0.0
 10
396.5612874425485
 20
106.1593218582757
 30
0.0
 10
396.9475726428972
 20
106.4022541681348
 30
0.0
 10
397.0810355950245
 20
106.486968671367
 30
0.0
  0
SPLINE
  5
173
330
1F
100
AcDbEntity
  8
1
  6
Continuous
 62
    30
370
    18
100
AcDbSpline
210
0.0
220
0.0
230
1.0
 70
     8
 71
     3
 72
    20
 73
    16
 74
     0
 42
0.000000001
 43
0.0000000001
 40
0.0
 40
0.0
 40
0.0
 40
0.0
 40
0.0375438251046258
 40
0.1230749395044917
 40
0.2085772087309331
 40
0.2941688096996205
 40
0.3801144688606885
 40
0.4669321878255329
 40
0.5555734769268499
 40
0.6479381631638762
 40
0.7483900366296313
 40
0.8448991579248408
 40
0.90867615261668
 40
0.9641121227143847
 40
1.0
 40
1.0
 40
1.0
 40
1.0
 10
363.2463706695208
 20
106.4873213040907
 30
0.0
 10
363.3599873830182
 20
106.4150629785637
 30
0.0
 10
363.7295337993768
 20
106.1819649903301
 30
0.0
 10
364.3365025172886
 20
105.8128010323747
 30
0.0
 10
365.063421244152
 20
105.3824457448844
 30
0.0
 10
365.7656315659383
 20
104.9817314657314
 30
0.0
 10
366.4450313787869
 20
104.6086149893188
 30
0.0
 10
367.10464998524
 20
104.2620746761744
 30
0.0
 10
367.7523567266577
 20
103.939136353213
 30
0.0
 10
368.406755316296
 20
103.633588102876
 30
0.0
 10
369.0603707344614
 20
103.354860972107
 30
0.0
 10
369.6523355006939
 20
103.1322430449917
 30
0.0
 10
370.169101227572
 20
102.966925442723
 30
0.0
 10
370.5639182919052
 20
102.8579403087499
 30
0.0
 10
370.8183789053653
 20
102.8027155307796
 30
0.0
 10
370.9211007848591
 20
102.7821331553807
 30
0.0
  0
SPLINE
  5
174
330
1F
100
AcDbEntity
  8
1
  6
Continuous
 62
    30
370
    18
100
AcDbSpline
210
0.0
220
0.0
230
1.0
 70
     8
 71
     3
 72
    20
 73
    16
 74
     0
 42
0.000000001
 43
0.0000000001
 40
0.0
 40
0.0
 40
0.0
 40
0.0
 40
0.0375438251047621
 40
0.1230749395047182
 40
0.2085772087311081
 40
0.2941688096997948
 40
0.3801144688608942
 40
0.466932187825681
 40
0.5555734769270896
 40
0.6479381631640844
 40
0.7483900366299068
 40
0.8448991579249227
 40
0.90867615261678
 40
0.9641121227144764
 40
1.0
 40
1.0
 40
1.0
 40
1.0
 10
397.0814190019613
 20
189.194610874033
 30
0.0
 10
396.9678022884635
 20
189.2668691995603
 30
0.0
 10
396.5982558721042
 20
189.4999671877942
 30
0.0
 10
395.9912871541919
 20
189.8691311457499
 30
0.0
 10
395.2643684273285
 20
190.2994864332401
 30
0.0
 10
394.5621581055423
 20
190.7002007123932
 30
0.0
 10
393.8827582926938
 20
191.0733171888056
 30
0.0
 10
393.2231396862406
 20
191.41985750195
 30
0.0
 10
392.5754329448229
 20
191.7427958249113
 30
0.0
 10
391.9210343551845
 20
192.0483440752484
 30
0.0
 10
391.2674189370193
 20
192.3270712060172
 30
0.0
 10
390.6754541707872
 20
192.5496891331323
 30
0.0
 10
390.1586884439093
 20
192.7150067354009
 30
0.0
 10
389.7638713795763
 20
192.8239918693739
 30
0.0
 10
389.5094107661166
 20
192.8792166473441
 30
0.0
 10
389.4066888866229
 20
192.8997990227429
 30
0.0
  0
SPLINE
  5
175
330
1F
100
AcDbEntity
  8
1
  6
Continuous
 62
    30
370
    13
100
AcDbSpline
210
0.0
220
0.0
230
1.0
 70
     8
 71
     3
 72
    33
 73
    29
 74
     0
 42
0.000000001
 43
0.0000000001
 40
0.0
 40
0.0
 40
0.0
 40
0.0
 40
0.1250000000000199
 40
0.1250000000000199
 40
0.2500000000000397
 40
0.2500000000000397
 40
0.3125000000000497
 40
0.3125000000000497
 40
0.3281250000000496
 40
0.3281250000000496
 40
0.3437500000000494
 40
0.3750000000000495
 40
0.3750000000000495
 40
0.4375000000000462
 40
0.4375000000000462
 40
0.5000000000000429
 40
0.5000000000000429
 40
0.6250000000000395
 40
0.6250000000000395
 40
0.6562500000000364
 40
0.6562500000000364
 40
0.6875000000000332
 40
0.6875000000000332
 40
0.7500000000000276
 40
0.7500000000000276
 40
0.8750000000000139
 40
0.8750000000000139
 40
1.0
 40
1.0
 40
1.0
 40
1.0
 10
393.6638948357411
 20
108.8089279665143
 30
0.0
 10
393.6638948357411
 20
108.7277439935285
 30
0.0
 10
393.6902236285709
 20
108.6735991335593
 30
0.0
 10
393.794499280547
 20
108.6176673399032
 30
0.0
 10
393.8724466053709
 20
108.6158823988614
 30
0.0
 10
394.0286660014535
 20
108.6530538886731
 30
0.0
 10
394.0873029106835
 20
108.6721049622829
 30
0.0
 10
394.1689767912227
 20
108.7044569848086
 30
0.0
 10
394.1857476964315
 20
108.7113620048151
 30
0.0
 10
394.2200537749571
 20
108.7259995080022
 30
0.0
 10
394.2725805607824
 20
108.7491618351546
 30
0.0
 10
394.3282597255944
 20
108.7758919664864
 30
0.0
 10
394.4436999238197
 20
108.8339930282015
 30
0.0
 10
394.5260986985589
 20
108.878909575062
 30
0.0
 10
394.7012302393865
 20
108.9806265994448
 30
0.0
 10
394.7939638084916
 20
109.0374280058647
 30
0.0
 10
395.0870240514491
 20
109.2251744725931
 30
0.0
 10
395.3021728606911
 20
109.3734046640317
 30
0.0
 10
395.5943488502184
 20
109.5868708149883
 30
0.0
 10
395.6539666261227
 20
109.6309907012745
 30
0.0
 10
395.7754347659653
 20
109.7220049525068
 30
0.0
 10
395.8369731196244
 20
109.7686651851833
 30
0.0
 10
396.0238917587355
 20
109.912003388392
 30
0.0
 10
396.1515729442673
 20
110.0120351500926
 30
0.0
 10
396.543059034206
 20
110.3248861095168
 30
0.0
 10
396.815278860618
 20
110.5504202039722
 30
0.0
 10
397.3789709507999
 20
111.0331141523602
 30
0.0
 10
397.6704556814858
 20
111.2902883934226
 30
0.0
 10
397.970352955393
 20
111.5627150328778
 30
0.0
  0
SPLINE
  5
176
330
1F
100
AcDbEntity
  8
1
  6
Continuous
 62
    30
370
    13
100
AcDbSpline
210
0.0
220
0.0
230
1.0
 70
     8
 71
     3
 72
    31
 73
    27
 74
     0
 42
0.000000001
 43
0.0000000001
 40
0.0
 40
0.0
 40
0.0
 40
0.0
 40
0.1249999999999998
 40
0.1249999999999998
 40
0.2499999999999995
 40
0.2499999999999995
 40
0.3749999999999992
 40
0.3749999999999992
 40
0.4062499999999984
 40
0.4062499999999984
 40
0.4218749999999984
 40
0.4218749999999984
 40
0.4374999999999983
 40
0.4999999999999985
 40
0.4999999999999985
 40
0.624999999999999
 40
0.624999999999999
 40
0.7499999999999994
 40
0.7499999999999994
 40
0.8125000000000002
 40
0.8125000000000002
 40
0.8437500000000003
 40
0.8437500000000003
 40
0.8750000000000003
 40
0.8750000000000003
 40
1.0
 40
1.0
 40
1.0
 40
1.0
 10
397.970352955393
 20
111.5627150328778
 30
0.0
 10
398.3426637547581
 20
111.9009221081957
 30
0.0
 10
398.7248731375004
 20
112.2489647438659
 30
0.0
 10
399.5023915199322
 20
112.9684673120146
 30
0.0
 10
399.8977118048861
 20
113.3399223937762
 30
0.0
 10
400.6959089530485
 20
114.1092422701067
 30
0.0
 10
401.0987936094965
 20
114.5071028066903
 30
0.0
 10
401.6041849002646
 20
115.02242577742
 30
0.0
 10
401.7053542023626
 20
115.1263889254971
 30
0.0
 10
401.8571944869936
 20
115.2837057814575
 30
0.0
 10
401.9078428782857
 20
115.3363948998478
 30
0.0
 10
402.0090648681691
 20
115.4421345709896
 30
0.0
 10
402.2617539467361
 20
115.7071986111817
 30
0.0
 10
402.512536234089
 20
115.9758618784958
 30
0.0
 10
403.1102603360931
 20
116.6277023903128
 30
0.0
 10
403.5031859353008
 20
117.0716703460157
 30
0.0
 10
404.2758665887704
 20
117.9788691068012
 30
0.0
 10
404.6556291712445
 20
118.4420955060648
 30
0.0
 10
405.2142638781471
 20
119.151522815619
 30
0.0
 10
405.3986440292528
 20
119.3904283288191
 30
0.0
 10
405.6723500595491
 20
119.752438694158
 30
0.0
 10
405.7631081879526
 20
119.8737174383578
 30
0.0
 10
405.9436521376088
 20
120.1174927935497
 30
0.0
 10
406.0334744223836
 20
120.2400401786789
 30
0.0
 10
406.4794836647598
 20
120.8549501200883
 30
0.0
 10
406.8265770483229
 20
121.3541061265859
 30
0.0
 10
407.1638948357411
 20
121.8604625052005
 30
0.0
  0
SPLINE
  5
177
330
1F
100
AcDbEntity
  8
1
  6
Continuous
 62
    30
370
    13
100
AcDbSpline
210
0.0
220
0.0
230
1.0
 70
     8
 71
     3
 72
    27
 73
    23
 74
     0
 42
0.000000001
 43
0.0000000001
 40
0.0
 40
0.0
 40
0.0
 40
0.0
 40
0.1250000000000031
 40
0.1250000000000031
 40
0.2500000000000062
 40
0.2500000000000062
 40
0.3750000000000092
 40
0.3750000000000092
 40
0.5000000000000123
 40
0.5000000000000123
 40
0.562500000000014
 40
0.562500000000014
 40
0.5781250000000145
 40
0.5781250000000145
 40
0.5937500000000152
 40
0.6250000000000147
 40
0.6250000000000147
 40
0.7500000000000098
 40
0.7500000000000098
 40
0.8750000000000049
 40
0.8750000000000049
 40
1.0
 40
1.0
 40
1.0
 40
1.0
 10
407.1638948357411
 20
173.8214696729232
 30
0.0
 10
406.8261747499458
 20
174.3284299519455
 30
0.0
 10
406.4798058117061
 20
174.8264423581664
 30
0.0
 10
405.7705206913586
 20
175.804519429389
 30
0.0
 10
405.4076007828019
 20
176.2845821172164
 30
0.0
 10
404.6661534598855
 20
177.2267672279753
 30
0.0
 10
404.2876206820112
 20
177.6888866511416
 30
0.0
 10
403.5162157033658
 20
178.5953278137301
 30
0.0
 10
403.1233355240648
 20
179.0396449086054
 30
0.0
 10
402.5246048568226
 20
179.6930644861959
 30
0.0
 10
402.323464395723
 20
179.9086973570188
 30
0.0
 10
402.0702707738345
 20
180.1755755412466
 30
0.0
 10
402.0195137543988
 20
180.2288493645451
 30
0.0
 10
401.9180415241086
 20
180.3349103656094
 30
0.0
 10
401.7658602714754
 20
180.4933104035648
 30
0.0
 10
401.6137968222
 20
180.6496531720298
 30
0.0
 10
401.1073484823054
 20
181.1663044368973
 30
0.0
 10
400.7035363353127
 20
181.5652320366898
 30
0.0
 10
399.9033455046024
 20
182.3366845858895
 30
0.0
 10
399.5069588205126
 20
182.7092051339748
 30
0.0
 10
398.7272118115892
 20
183.4308361995003
 30
0.0
 10
398.3438398857407
 20
183.7799416727165
 30
0.0
 10
397.970352955393
 20
184.1192171452458
 30
0.0
  0
SPLINE
  5
178
330
1F
100
AcDbEntity
  8
1
  6
Continuous
 62
    30
370
    13
100
AcDbSpline
210
0.0
220
0.0
230
1.0
 70
     8
 71
     3
 72
    39
 73
    35
 74
     0
 42
0.000000001
 43
0.0000000001
 40
0.0
 40
0.0
 40
0.0
 40
0.0
 40
0.125000000000007
 40
0.125000000000007
 40
0.250000000000014
 40
0.250000000000014
 40
0.3125000000000182
 40
0.3125000000000182
 40
0.3281250000000204
 40
0.3281250000000204
 40
0.3437500000000227
 40
0.3437500000000227
 40
0.3750000000000245
 40
0.3750000000000245
 40
0.5000000000000328
 40
0.5000000000000328
 40
0.5625000000000354
 40
0.5625000000000354
 40
0.5937500000000364
 40
0.6093750000000367
 40
0.6093750000000367
 40
0.6250000000000371
 40
0.6250000000000371
 40
0.6875000000000375
 40
0.6875000000000375
 40
0.7031250000000367
 40
0.7031250000000367
 40
0.718750000000036
 40
0.718750000000036
 40
0.7500000000000311
 40
0.7500000000000311
 40
0.8750000000000157
 40
0.8750000000000157
 40
1.0
 40
1.0
 40
1.0
 40
1.0
 10
397.970352955393
 20
184.1192171452458
 30
0.0
 10
397.6730388098511
 20
184.3892972712745
 30
0.0
 10
397.3835014728323
 20
184.6448325790558
 30
0.0
 10
396.8224835409553
 20
185.1254462820519
 30
0.0
 10
396.5509897530987
 20
185.3505404516895
 30
0.0
 10
396.1597358135686
 20
185.6634538766977
 30
0.0
 10
396.0319894675466
 20
185.7636265944749
 30
0.0
 10
395.8759738192978
 20
185.8833789538724
 30
0.0
 10
395.8449542867911
 20
185.9070559281127
 30
0.0
 10
395.7832916010443
 20
185.9538540509405
 30
0.0
 10
395.7526922018088
 20
185.9769418168711
 30
0.0
 10
395.6617743931317
 20
186.045134568564
 30
0.0
 10
395.6022630206662
 20
186.0892248399125
 30
0.0
 10
395.3102940656632
 20
186.3027942110407
 30
0.0
 10
395.0945492098265
 20
186.4517024300764
 30
0.0
 10
394.7998860951137
 20
186.6408215961603
 30
0.0
 10
394.7065006231893
 20
186.6981395125392
 30
0.0
 10
394.5740607800964
 20
186.7752146042777
 30
0.0
 10
394.5097517489478
 20
186.8115249191753
 30
0.0
 10
394.4483943684315
 20
186.8444167939062
 30
0.0
 10
394.4081558776282
 20
186.8655750639227
 30
0.0
 10
394.3883584288457
 20
186.8757749826152
 30
0.0
 10
394.2913024752535
 20
186.9247062615217
 30
0.0
 10
394.2196954782027
 20
186.9573155667882
 30
0.0
 10
394.1378871501507
 20
186.989806462025
 30
0.0
 10
394.1219107804101
 20
186.9958907143924
 30
0.0
 10
394.0907335903582
 20
187.0072272490921
 30
0.0
 10
394.075540144564
 20
187.0124763818884
 30
0.0
 10
394.0312574999521
 20
187.0269319107443
 30
0.0
 10
394.0034209171674
 20
187.0348633908349
 30
0.0
 10
393.8725660109034
 20
187.066107288146
 30
0.0
 10
393.7944570893669
 20
187.0642796095553
 30
0.0
 10
393.6901202653478
 20
187.0082401479713
 30
0.0
 10
393.6638948357411
 20
186.9540267362672
 30
0.0
 10
393.6638948357411
 20
186.8730042116093
 30
0.0
  0
SPLINE
  5
179
330
1F
100
AcDbEntity
  8
1
  6
Continuous
 62
    30
370
    13
100
AcDbSpline
210
0.0
220
0.0
230
1.0
 70
     8
 71
     3
 72
    33
 73
    29
 74
     0
 42
0.000000001
 43
0.0000000001
 40
0.0
 40
0.0
 40
0.0
 40
0.0
 40
0.125000000000021
 40
0.125000000000021
 40
0.2500000000000419
 40
0.2500000000000419
 40
0.3125000000000523
 40
0.3125000000000523
 40
0.3281250000000523
 40
0.3281250000000523
 40
0.3437500000000523
 40
0.3750000000000521
 40
0.3750000000000521
 40
0.4375000000000484
 40
0.4375000000000484
 40
0.5000000000000446
 40
0.5000000000000446
 40
0.6250000000000409
 40
0.6250000000000409
 40
0.6562500000000376
 40
0.6562500000000376
 40
0.6875000000000344
 40
0.6875000000000344
 40
0.7500000000000285
 40
0.7500000000000285
 40
0.8750000000000143
 40
0.8750000000000143
 40
1.0
 40
1.0
 40
1.0
 40
1.0
 10
366.6638948357412
 20
186.8730042116094
 30
0.0
 10
366.6638948357412
 20
186.9541881845952
 30
0.0
 10
366.6375660429113
 20
187.0083330445643
 30
0.0
 10
366.5332903909352
 20
187.0642648382204
 30
0.0
 10
366.4553430661114
 20
187.0660497792622
 30
0.0
 10
366.2991236700287
 20
187.0288782894506
 30
0.0
 10
366.2404867607987
 20
187.0098272158407
 30
0.0
 10
366.1588128802596
 20
186.9774751933151
 30
0.0
 10
366.1420419750507
 20
186.9705701733085
 30
0.0
 10
366.1077358965251
 20
186.9559326701215
 30
0.0
 10
366.0552091106998
 20
186.9327703429691
 30
0.0
 10
365.9995299458878
 20
186.9060402116373
 30
0.0
 10
365.8840897476626
 20
186.8479391499222
 30
0.0
 10
365.8016909729233
 20
186.8030226030617
 30
0.0
 10
365.6265594320957
 20
186.7013055786789
 30
0.0
 10
365.5338258629907
 20
186.644504172259
 30
0.0
 10
365.2407656200331
 20
186.4567577055305
 30
0.0
 10
365.0256168107911
 20
186.308527514092
 30
0.0
 10
364.7334408212639
 20
186.0950613631354
 30
0.0
 10
364.6738230453595
 20
186.0509414768492
 30
0.0
 10
364.5523549055169
 20
185.9599272256169
 30
0.0
 10
364.4908165518579
 20
185.9132669929404
 30
0.0
 10
364.3038979127467
 20
185.7699287897318
 30
0.0
 10
364.1762167272149
 20
185.6698970280311
 30
0.0
 10
363.7847306372762
 20
185.3570460686069
 30
0.0
 10
363.5125108108642
 20
185.1315119741515
 30
0.0
 10
362.9488187206823
 20
184.6488180257634
 30
0.0
 10
362.6573339899964
 20
184.3916437847011
 30
0.0
 10
362.3574367160892
 20
184.1192171452458
 30
0.0
  0
SPLINE
  5
17A
330
1F
100
AcDbEntity
  8
1
  6
Continuous
 62
    30
370
    13
100
AcDbSpline
210
0.0
220
0.0
230
1.0
 70
     8
 71
     3
 72
    31
 73
    27
 74
     0
 42
0.000000001
 43
0.0000000001
 40
0.0
 40
0.0
 40
0.0
 40
0.0
 40
0.1250000000000015
 40
0.1250000000000015
 40
0.250000000000003
 40
0.250000000000003
 40
0.3750000000000045
 40
0.3750000000000045
 40
0.4062500000000037
 40
0.4062500000000037
 40
0.4218750000000036
 40
0.4218750000000036
 40
0.4375000000000035
 40
0.5000000000000037
 40
0.5000000000000037
 40
0.6250000000000026
 40
0.6250000000000026
 40
0.7500000000000014
 40
0.7500000000000014
 40
0.8125000000000011
 40
0.8125000000000011
 40
0.8437500000000009
 40
0.8437500000000009
 40
0.8750000000000007
 40
0.8750000000000007
 40
1.0
 40
1.0
 40
1.0
 40
1.0
 10
362.3574367160892
 20
184.1192171452458
 30
0.0
 10
361.9851259167241
 20
183.781010069928
 30
0.0
 10
361.6029165339818
 20
183.4329674342578
 30
0.0
 10
360.82539815155
 20
182.713464866109
 30
0.0
 10
360.4300778665962
 20
182.3420097843475
 30
0.0
 10
359.6318807184338
 20
181.572689908017
 30
0.0
 10
359.2289960619857
 20
181.1748293714333
 30
0.0
 10
358.7236047712177
 20
180.6595064007037
 30
0.0
 10
358.6224354691196
 20
180.5555432526266
 30
0.0
 10
358.4705951844886
 20
180.3982263966662
 30
0.0
 10
358.4199467931965
 20
180.3455372782759
 30
0.0
 10
358.3187248033131
 20
180.2397976071341
 30
0.0
 10
358.0660357247461
 20
179.974733566942
 30
0.0
 10
357.8152534373932
 20
179.7060702996279
 30
0.0
 10
357.2175293353891
 20
179.0542297878109
 30
0.0
 10
356.8246037361814
 20
178.610261832108
 30
0.0
 10
356.0519230827117
 20
177.7030630713225
 30
0.0
 10
355.6721605002377
 20
177.2398366720589
 30
0.0
 10
355.1135257933351
 20
176.5304093625047
 30
0.0
 10
354.9291456422295
 20
176.2915038493046
 30
0.0
 10
354.6554396119332
 20
175.9294934839657
 30
0.0
 10
354.5646814835296
 20
175.808214739766
 30
0.0
 10
354.3841375338735
 20
175.564439384574
 30
0.0
 10
354.2943152490986
 20
175.4418919994448
 30
0.0
 10
353.8483060067225
 20
174.8269820580354
 30
0.0
 10
353.5012126231593
 20
174.3278260515378
 30
0.0
 10
353.1638948357411
 20
173.8214696729233
 30
0.0
  0
SPLINE
  5
17B
330
1F
100
AcDbEntity
  8
1
  6
Continuous
 62
    30
370
    13
100
AcDbSpline
210
0.0
220
0.0
230
1.0
 70
     8
 71
     3
 72
    27
 73
    23
 74
     0
 42
0.000000001
 43
0.0000000001
 40
0.0
 40
0.0
 40
0.0
 40
0.0
 40
0.1249999999999978
 40
0.1249999999999978
 40
0.2499999999999956
 40
0.2499999999999956
 40
0.3749999999999933
 40
0.3749999999999933
 40
0.4999999999999911
 40
0.4999999999999911
 40
0.5624999999999903
 40
0.5624999999999903
 40
0.5781249999999903
 40
0.5781249999999903
 40
0.5937499999999906
 40
0.6249999999999909
 40
0.6249999999999909
 40
0.7499999999999939
 40
0.7499999999999939
 40
0.8749999999999969
 40
0.8749999999999969
 40
1.0
 40
1.0
 40
1.0
 40
1.0
 10
353.163894835741
 20
121.8604625052005
 30
0.0
 10
353.5016149215363
 20
121.3535022261782
 30
0.0
 10
353.847983859776
 20
120.8554898199573
 30
0.0
 10
354.5572689801235
 20
119.8774127487347
 30
0.0
 10
354.9201888886802
 20
119.3973500609073
 30
0.0
 10
355.6616362115966
 20
118.4551649501484
 30
0.0
 10
356.0401689894709
 20
117.9930455269821
 30
0.0
 10
356.8115739681162
 20
117.0866043643936
 30
0.0
 10
357.2044541474172
 20
116.6422872695183
 30
0.0
 10
357.8031848146594
 20
115.9888676919278
 30
0.0
 10
358.0043252757591
 20
115.7732348211049
 30
0.0
 10
358.2575188976476
 20
115.506356636877
 30
0.0
 10
358.3082759170832
 20
115.4530828135786
 30
0.0
 10
358.4097481473735
 20
115.3470218125143
 30
0.0
 10
358.5619294000067
 20
115.1886217745589
 30
0.0
 10
358.7139928492821
 20
115.0322790060939
 30
0.0
 10
359.2204411891766
 20
114.5156277412263
 30
0.0
 10
359.6242533361694
 20
114.1167001414339
 30
0.0
 10
360.4244441668797
 20
113.3452475922341
 30
0.0
 10
360.8208308509695
 20
112.9727270441488
 30
0.0
 10
361.6005778598928
 20
112.2510959786234
 30
0.0
 10
361.9839497857413
 20
111.9019905054072
 30
0.0
 10
362.3574367160891
 20
111.5627150328779
 30
0.0
  0
SPLINE
  5
17C
330
1F
100
AcDbEntity
  8
1
  6
Continuous
 62
    30
370
    13
100
AcDbSpline
210
0.0
220
0.0
230
1.0
 70
     8
 71
     3
 72
    39
 73
    35
 74
     0
 42
0.000000001
 43
0.0000000001
 40
0.0
 40
0.0
 40
0.0
 40
0.0
 40
0.125000000000015
 40
0.125000000000015
 40
0.2500000000000301
 40
0.2500000000000301
 40
0.3125000000000376
 40
0.3125000000000376
 40
0.328125000000038
 40
0.328125000000038
 40
0.3437500000000385
 40
0.3437500000000385
 40
0.3750000000000365
 40
0.3750000000000365
 40
0.5000000000000324
 40
0.5000000000000324
 40
0.5625000000000323
 40
0.5625000000000323
 40
0.5937500000000324
 40
0.6093750000000325
 40
0.6093750000000325
 40
0.6250000000000325
 40
0.6250000000000325
 40
0.687500000000034
 40
0.687500000000034
 40
0.7031250000000335
 40
0.7031250000000335
 40
0.7187500000000331
 40
0.7187500000000331
 40
0.7500000000000286
 40
0.7500000000000286
 40
0.8750000000000143
 40
0.8750000000000143
 40
1.0
 40
1.0
 40
1.0
 40
1.0
 10
362.3574367160891
 20
111.5627150328779
 30
0.0
 10
362.654750861631
 20
111.2926349068492
 30
0.0
 10
362.9442881986498
 20
111.0370995990678
 30
0.0
 10
363.5053061305268
 20
110.5564858960718
 30
0.0
 10
363.7767999183833
 20
110.3313917264342
 30
0.0
 10
364.1680538579135
 20
110.018478301426
 30
0.0
 10
364.2958002039354
 20
109.9183055836488
 30
0.0
 10
364.4518158521842
 20
109.7985532242513
 30
0.0
 10
364.482835384691
 20
109.774876250011
 30
0.0
 10
364.5444980704377
 20
109.7280781271832
 30
0.0
 10
364.5750974696732
 20
109.7049903612525
 30
0.0
 10
364.6660152783503
 20
109.6367976095597
 30
0.0
 10
364.7255266508159
 20
109.5927073382112
 30
0.0
 10
365.0174956058189
 20
109.379137967083
 30
0.0
 10
365.2332404616556
 20
109.2302297480472
 30
0.0
 10
365.5279035763684
 20
109.0411105819634
 30
0.0
 10
365.6212890482927
 20
108.9837926655845
 30
0.0
 10
365.7537288913856
 20
108.9067175738459
 30
0.0
 10
365.8180379225343
 20
108.8704072589484
 30
0.0
 10
365.8793953030505
 20
108.8375153842175
 30
0.0
 10
365.9196337938538
 20
108.816357114201
 30
0.0
 10
365.9394312426364
 20
108.8061571955085
 30
0.0
 10
366.0364871962285
 20
108.757225916602
 30
0.0
 10
366.1080941932794
 20
108.7246166113354
 30
0.0
 10
366.1899025213314
 20
108.6921257160987
 30
0.0
 10
366.205878891072
 20
108.6860414637313
 30
0.0
 10
366.2370560811239
 20
108.6747049290316
 30
0.0
 10
366.252249526918
 20
108.6694557962353
 30
0.0
 10
366.2965321715299
 20
108.6550002673794
 30
0.0
 10
366.3243687543147
 20
108.6470687872888
 30
0.0
 10
366.4552236605787
 20
108.6158248899777
 30
0.0
 10
366.5333325821151
 20
108.6176525685683
 30
0.0
 10
366.6376694061342
 20
108.6736920301523
 30
0.0
 10
366.663894835741
 20
108.7279054418565
 30
0.0
 10
366.663894835741
 20
108.8089279665143
 30
0.0
  0
SPLINE
  5
17D
330
1F
100
AcDbEntity
  8
1
  6
Continuous
 62
    30
370
    13
100
AcDbSpline
210
0.0
220
0.0
230
1.0
 70
     8
 71
     3
 72
    12
 73
     8
 74
     0
 42
0.000000001
 43
0.0000000001
 40
0.0
 40
0.0
 40
0.0
 40
0.0
 40
0.0969124101887031
 40
0.3226843076415274
 40
0.5484562050943513
 40
0.7742281025471757
 40
1.0
 40
1.0
 40
1.0
 40
1.0
 10
370.9328236102414
 20
192.9052246774403
 30
0.0
 10
370.9719256111313
 20
192.9132464082226
 30
0.0
 10
371.0957509044136
 20
192.9354642310086
 30
0.0
 10
371.2704266675769
 20
192.9480383410016
 30
0.0
 10
371.4248380160732
 20
192.9204604147292
 30
0.0
 10
371.5179737670796
 20
192.8497175822685
 30
0.0
 10
371.5388948357412
 20
192.773418613491
 30
0.0
 10
371.5388948357412
 20
192.7278099299915
 30
0.0
  0
SPLINE
  5
17E
330
1F
100
AcDbEntity
  8
1
  6
Continuous
 62
    30
370
    13
100
AcDbSpline
210
0.0
220
0.0
230
1.0
 70
     8
 71
     3
 72
    13
 73
     9
 74
     0
 42
0.000000001
 43
0.0000000001
 40
0.0
 40
0.0
 40
0.0
 40
0.0
 40
0.2266930457564097
 40
0.4533860915128194
 40
0.6800791372692292
 40
0.9067721830256389
 40
0.9067721830256389
 40
1.0
 40
1.0
 40
1.0
 40
1.0
 10
371.538894835741
 20
102.9541222481322
 30
0.0
 10
371.538894835741
 20
102.9084422465403
 30
0.0
 10
371.5179082953454
 20
102.8319962722524
 30
0.0
 10
371.4242755750165
 20
102.7611645540668
 30
0.0
 10
371.2687701179063
 20
102.7337684496501
 30
0.0
 10
371.1236947559757
 20
102.7445185330662
 30
0.0
 10
371.0065380932444
 20
102.7624775591999
 30
0.0
 10
370.970624444623
 20
102.7689550491463
 30
0.0
 10
370.9329239587022
 20
102.7766878980317
 30
0.0
  0
SPLINE
  5
17F
330
1F
100
AcDbEntity
  8
1
  6
Continuous
 62
    30
370
    13
100
AcDbSpline
210
0.0
220
0.0
230
1.0
 70
     8
 71
     3
 72
    12
 73
     8
 74
     0
 42
0.000000001
 43
0.0000000001
 40
0.0
 40
0.0
 40
0.0
 40
0.0
 40
0.0969124879866532
 40
0.3226843659899903
 40
0.548456243993327
 40
0.7742281219966637
 40
1.0
 40
1.0
 40
1.0
 40
1.0
 10
389.394966013512
 20
102.7767073779382
 30
0.0
 10
389.3558639295487
 20
102.7686855952961
 30
0.0
 10
389.2320384564329
 20
102.746467630729
 30
0.0
 10
389.0573628668466
 20
102.7338937249006
 30
0.0
 10
388.9029516554091
 20
102.7614717633944
 30
0.0
 10
388.8098159044026
 20
102.8322145958551
 30
0.0
 10
388.7888948357411
 20
102.9085135646326
 30
0.0
 10
388.7888948357411
 20
102.9541222481322
 30
0.0
  0
SPLINE
  5
180
330
1F
100
AcDbEntity
  8
1
  6
Continuous
 62
    30
370
    13
100
AcDbSpline
210
0.0
220
0.0
230
1.0
 70
     8
 71
     3
 72
    13
 73
     9
 74
     0
 42
0.000000001
 43
0.0000000001
 40
0.0
 40
0.0
 40
0.0
 40
0.0
 40
0.2266930457567779
 40
0.4533860915135557
 40
0.6800791372703335
 40
0.9067721830271115
 40
0.9067721830271115
 40
1.0
 40
1.0
 40
1.0
 40
1.0
 10
388.7888948357411
 20
192.7278099299915
 30
0.0
 10
388.7888948357411
 20
192.7734899315834
 30
0.0
 10
388.8098813761366
 20
192.8499359058713
 30
0.0
 10
388.9035140964655
 20
192.9207676240569
 30
0.0
 10
389.0590195535757
 20
192.9481637284735
 30
0.0
 10
389.2040949155063
 20
192.9374136450574
 30
0.0
 10
389.3212515782371
 20
192.9194546189239
 30
0.0
 10
389.3571652268577
 20
192.9129771289777
 30
0.0
 10
389.3948657127779
 20
192.9052442800924
 30
0.0
  0
SPLINE
  5
181
330
1F
100
AcDbEntity
  8
1
  6
Continuous
 62
    30
370
    13
100
AcDbSpline
210
0.0
220
0.0
230
1.0
 70
     8
 71
     3
 72
    45
 73
    41
 74
     0
 42
0.000000001
 43
0.0000000001
 40
0.0
 40
0.0
 40
0.0
 40
0.0
 40
0.0675926849615108
 40
0.0675926849615108
 40
0.1351853699230216
 40
0.1351853699230216
 40
0.2027780548845324
 40
0.2027780548845324
 40
0.2196762261249093
 40
0.2196762261249093
 40
0.2365743973652862
 40
0.2365743973652862
 40
0.2703707398460398
 40
0.2703707398460398
 40
0.2872689110864179
 40
0.2872689110864179
 40
0.3041670823267961
 40
0.3379634248075504
 40
0.3379634248075504
 40
0.4055561097690612
 40
0.4055561097690612
 40
0.473148794730572
 40
0.473148794730572
 40
0.5407414796920827
 40
0.5407414796920827
 40
0.557639650932461
 40
0.557639650932461
 40
0.5745378221728393
 40
0.5745378221728393
 40
0.6083341646535966
 40
0.6083341646535966
 40
0.6759268496151103
 40
0.6759268496151103
 40
0.7435195345766241
 40
0.7435195345766241
 40
0.8111122195381378
 40
0.8111122195381378
 40
0.9462975894611675
 40
0.9462975894611675
 40
1.0
 40
1.0
 40
1.0
 40
1.0
 10
366.663894835741
 20
126.4341914604542
 30
0.0
 10
366.663894835741
 20
126.4779089085842
 30
0.0
 10
366.6522620030324
 20
126.536300846641
 30
0.0
 10
366.6078654393006
 20
126.6802114035864
 30
0.0
 10
366.5750960447443
 20
126.7657354296651
 30
0.0
 10
366.4900048500301
 20
126.9622728472471
 30
0.0
 10
366.4376794125734
 20
127.0732897349618
 30
0.0
 10
366.3607868410706
 20
127.227242456125
 30
0.0
 10
366.3448331827261
 20
127.258793027015
 30
0.0
 10
366.3117907927469
 20
127.3233990123292
 30
0.0
 10
366.2946894551229
 20
127.3564784958822
 30
0.0
 10
366.2417967682045
 20
127.457775946219
 30
0.0
 10
366.204471703527
 20
127.5279506348028
 30
0.0
 10
366.1455446116668
 20
127.6370036307107
 30
0.0
 10
366.1254074312203
 20
127.6739948129214
 30
0.0
 10
366.0842973998046
 20
127.7489956863054
 30
0.0
 10
366.0213367577453
 20
127.8631027946414
 30
0.0
 10
365.9546296574773
 20
127.9818703812815
 30
0.0
 10
365.816546442691
 20
128.2252538810039
 30
0.0
 10
365.7182771914858
 20
128.3952944260558
 30
0.0
 10
365.5107150918785
 20
128.7493673116785
 30
0.0
 10
365.4014184719018
 20
128.9334037351151
 30
0.0
 10
365.1728687260964
 20
129.3142664079011
 30
0.0
 10
365.0536131632547
 20
129.5110953095402
 30
0.0
 10
364.898841029737
 20
129.7645397024637
 30
0.0
 10
364.867600982687
 20
129.8155995472583
 30
0.0
 10
364.8045608913251
 20
129.9184485443753
 30
0.0
 10
364.7727372633907
 20
129.9702760046166
 30
0.0
 10
364.6766398427337
 20
130.1265135225836
 30
0.0
 10
364.6117639693238
 20
130.2316398817991
 30
0.0
 10
364.4148522140472
 20
130.5497655524176
 30
0.0
 10
364.2805370841664
 20
130.7655063034392
 30
0.0
 10
364.0064796318786
 20
131.2036076065449
 30
0.0
 10
363.8667358296299
 20
131.4259696783269
 30
0.0
 10
363.5823321098646
 20
131.8767706030245
 30
0.0
 10
363.4376712005602
 20
132.1052104787899
 30
0.0
 10
362.996927272519
 20
132.7989948596597
 30
0.0
 10
362.6941113318513
 20
133.2727731392986
 30
0.0
 10
362.2601266380867
 20
133.9487152671853
 30
0.0
 10
362.1355078675049
 20
134.1424729397144
 30
0.0
 10
362.0097116737698
 20
134.3377543160838
 30
0.0
  0
SPLINE
  5
182
330
1F
100
AcDbEntity
  8
1
  6
Continuous
 62
    30
370
    13
100
AcDbSpline
210
0.0
220
0.0
230
1.0
 70
     8
 71
     3
 72
    45
 73
    41
 74
     0
 42
0.000000001
 43
0.0000000001
 40
0.0
 40
0.0
 40
0.0
 40
0.0
 40
0.0537343496398314
 40
0.0537343496398314
 40
0.1889151568341441
 40
0.1889151568341441
 40
0.2565055604312998
 40
0.2565055604312998
 40
0.3240959640284555
 40
0.3240959640284555
 40
0.3916863676256111
 40
0.3916863676256111
 40
0.4254815694241887
 40
0.4254815694241887
 40
0.442379170323478
 40
0.442379170323478
 40
0.4592767712227668
 40
0.4592767712227668
 40
0.5268671748199201
 40
0.5268671748199201
 40
0.5944575784170733
 40
0.5944575784170733
 40
0.6620479820142265
 40
0.6620479820142265
 40
0.695843183812802
 40
0.712740784712091
 40
0.712740784712091
 40
0.7296383856113803
 40
0.7296383856113803
 40
0.7634335874099561
 40
0.7634335874099561
 40
0.7803311883092442
 40
0.7803311883092442
 40
0.7972287892085326
 40
0.7972287892085326
 40
0.8648191928056884
 40
0.8648191928056884
 40
0.9324095964028442
 40
0.9324095964028442
 40
1.0
 40
1.0
 40
1.0
 40
1.0
 10
362.0094744778892
 20
161.3438096482545
 30
0.0
 10
362.1353512174177
 20
161.5392156784737
 30
0.0
 10
362.2600490883798
 20
161.7330961253099
 30
0.0
 10
362.6941113318514
 20
162.4091590388252
 30
0.0
 10
362.9969272725191
 20
162.882937318464
 30
0.0
 10
363.4376712005603
 20
163.5767216993339
 30
0.0
 10
363.5823321098646
 20
163.8051615750992
 30
0.0
 10
363.86673582963
 20
164.2559624997968
 30
0.0
 10
364.0064796318787
 20
164.4783245715789
 30
0.0
 10
364.2805370841664
 20
164.9164258746845
 30
0.0
 10
364.4148522140474
 20
165.1321666257062
 30
0.0
 10
364.6117639693239
 20
165.4502922963246
 30
0.0
 10
364.6766398427338
 20
165.5554186555401
 30
0.0
 10
364.7727372633908
 20
165.7116561735071
 30
0.0
 10
364.8045608913253
 20
165.7634836337484
 30
0.0
 10
364.8676009826871
 20
165.8663326308654
 30
0.0
 10
364.8988410297371
 20
165.91739247566
 30
0.0
 10
365.0536131632548
 20
166.1708368685836
 30
0.0
 10
365.1728687260965
 20
166.3676657702226
 30
0.0
 10
365.4014184719019
 20
166.7485284430086
 30
0.0
 10
365.5107150918785
 20
166.9325648664452
 30
0.0
 10
365.7182771914859
 20
167.286637752068
 30
0.0
 10
365.816546442691
 20
167.4566782971198
 30
0.0
 10
365.9546296574773
 20
167.7000617968422
 30
0.0
 10
366.0213367577454
 20
167.8188293834823
 30
0.0
 10
366.0842973998047
 20
167.9329364918183
 30
0.0
 10
366.1254074312204
 20
168.0079373652023
 30
0.0
 10
366.1455446116669
 20
168.0449285474131
 30
0.0
 10
366.204471703527
 20
168.1539815433209
 30
0.0
 10
366.2417967682046
 20
168.2241562319047
 30
0.0
 10
366.294689455123
 20
168.3254536822415
 30
0.0
 10
366.311790792747
 20
168.3585331657945
 30
0.0
 10
366.3448331827262
 20
168.4231391511087
 30
0.0
 10
366.3607868410707
 20
168.4546897219987
 30
0.0
 10
366.4376794125735
 20
168.6086424431619
 30
0.0
 10
366.4900048500302
 20
168.7196593308766
 30
0.0
 10
366.5750960447444
 20
168.9161967484587
 30
0.0
 10
366.6078654393007
 20
169.0017207745373
 30
0.0
 10
366.6522620030325
 20
169.1456313314827
 30
0.0
 10
366.6638948357411
 20
169.2040232695395
 30
0.0
 10
366.6638948357411
 20
169.2477407176695
 30
0.0
  0
SPLINE
  5
183
330
1F
100
AcDbEntity
  8
1
  6
Continuous
 62
    30
370
    13
100
AcDbSpline
210
0.0
220
0.0
230
1.0
 70
     8
 71
     3
 72
    45
 73
    41
 74
     0
 42
0.000000001
 43
0.0000000001
 40
0.0
 40
0.0
 40
0.0
 40
0.0
 40
0.0537343495814782
 40
0.0537343495814782
 40
0.188915156784127
 40
0.188915156784127
 40
0.2565055603854509
 40
0.2565055603854509
 40
0.3240959639867746
 40
0.3240959639867746
 40
0.3916863675880985
 40
0.3916863675880985
 40
0.4254815693887601
 40
0.4254815693887601
 40
0.4423791702890912
 40
0.4423791702890912
 40
0.4592767711894222
 40
0.4592767711894222
 40
0.5268671747907449
 40
0.5268671747907449
 40
0.5944575783920676
 40
0.5944575783920676
 40
0.6620479819933903
 40
0.6620479819933903
 40
0.6958431837940504
 40
0.7127407846943816
 40
0.7127407846943816
 40
0.7296383855947127
 40
0.7296383855947127
 40
0.7634335873953721
 40
0.7634335873953721
 40
0.7803311882957021
 40
0.7803311882957021
 40
0.7972287891960319
 40
0.7972287891960319
 40
0.8648191927973545
 40
0.8648191927973545
 40
0.9324095963986773
 40
0.9324095963986773
 40
1.0
 40
1.0
 40
1.0
 40
1.0
 10
398.3183151931595
 20
134.3381225291964
 30
0.0
 10
398.1924384537782
 20
134.1427164992051
 30
0.0
 10
398.0677405829607
 20
133.9488360525931
 30
0.0
 10
397.6336783396308
 20
133.2727731392985
 30
0.0
 10
397.3308623989631
 20
132.7989948596596
 30
0.0
 10
396.8901184709219
 20
132.1052104787898
 30
0.0
 10
396.7454575616176
 20
131.8767706030245
 30
0.0
 10
396.4610538418522
 20
131.4259696783269
 30
0.0
 10
396.3213100396035
 20
131.2036076065448
 30
0.0
 10
396.0472525873157
 20
130.7655063034391
 30
0.0
 10
395.9129374574349
 20
130.5497655524175
 30
0.0
 10
395.7160257021583
 20
130.2316398817991
 30
0.0
 10
395.6511498287484
 20
130.1265135225836
 30
0.0
 10
395.5550524080914
 20
129.9702760046166
 30
0.0
 10
395.523228780157
 20
129.9184485443753
 30
0.0
 10
395.4601886887951
 20
129.8155995472583
 30
0.0
 10
395.4289486417451
 20
129.7645397024637
 30
0.0
 10
395.2741765082274
 20
129.5110953095401
 30
0.0
 10
395.1549209453857
 20
129.3142664079011
 30
0.0
 10
394.9263711995803
 20
128.9334037351151
 30
0.0
 10
394.8170745796037
 20
128.7493673116785
 30
0.0
 10
394.6095124799963
 20
128.3952944260557
 30
0.0
 10
394.5112432287912
 20
128.2252538810039
 30
0.0
 10
394.3731600140048
 20
127.9818703812814
 30
0.0
 10
394.3064529137368
 20
127.8631027946413
 30
0.0
 10
394.2434922716775
 20
127.7489956863054
 30
0.0
 10
394.2023822402618
 20
127.6739948129214
 30
0.0
 10
394.1822450598153
 20
127.6370036307106
 30
0.0
 10
394.1233179679551
 20
127.5279506348027
 30
0.0
 10
394.0859929032776
 20
127.457775946219
 30
0.0
 10
394.0331002163592
 20
127.3564784958822
 30
0.0
 10
394.0159988787352
 20
127.3233990123292
 30
0.0
 10
393.982956488756
 20
127.258793027015
 30
0.0
 10
393.9670028304115
 20
127.227242456125
 30
0.0
 10
393.8901102589087
 20
127.0732897349617
 30
0.0
 10
393.837784821452
 20
126.9622728472471
 30
0.0
 10
393.7526936267378
 20
126.765735429665
 30
0.0
 10
393.7199242321815
 20
126.6802114035864
 30
0.0
 10
393.6755276684497
 20
126.536300846641
 30
0.0
 10
393.6638948357411
 20
126.4779089085842
 30
0.0
 10
393.6638948357411
 20
126.4341914604542
 30
0.0
  0
SPLINE
  5
184
330
1F
100
AcDbEntity
  8
1
  6
Continuous
 62
    30
370
    13
100
AcDbSpline
210
0.0
220
0.0
230
1.0
 70
     8
 71
     3
 72
    45
 73
    41
 74
     0
 42
0.000000001
 43
0.0000000001
 40
0.0
 40
0.0
 40
0.0
 40
0.0
 40
0.0675926849688277
 40
0.0675926849688277
 40
0.1351853699376553
 40
0.1351853699376553
 40
0.202778054906483
 40
0.202778054906483
 40
0.2196762261486891
 40
0.2196762261486891
 40
0.2365743973908953
 40
0.2365743973908953
 40
0.2703707398753072
 40
0.2703707398753072
 40
0.2872689111175146
 40
0.2872689111175146
 40
0.3041670823597221
 40
0.3379634248441348
 40
0.3379634248441348
 40
0.4055561098129624
 40
0.4055561098129624
 40
0.4731487947817901
 40
0.4731487947817901
 40
0.5407414797506177
 40
0.5407414797506177
 40
0.5576396509928251
 40
0.5576396509928251
 40
0.5745378222350322
 40
0.5745378222350322
 40
0.6083341647194465
 40
0.6083341647194465
 40
0.6759268496882753
 40
0.6759268496882753
 40
0.7435195346571041
 40
0.7435195346571041
 40
0.8111122196259327
 40
0.8111122196259327
 40
0.9462975895635921
 40
0.9462975895635921
 40
1.0
 40
1.0
 40
1.0
 40
1.0
 10
393.6638948357411
 20
169.2477407176695
 30
0.0
 10
393.6638948357411
 20
169.2040232695394
 30
0.0
 10
393.6755276684497
 20
169.1456313314827
 30
0.0
 10
393.7199242321815
 20
169.0017207745373
 30
0.0
 10
393.7526936267378
 20
168.9161967484586
 30
0.0
 10
393.837784821452
 20
168.7196593308766
 30
0.0
 10
393.8901102589087
 20
168.6086424431619
 30
0.0
 10
393.9670028304115
 20
168.4546897219987
 30
0.0
 10
393.982956488756
 20
168.4231391511086
 30
0.0
 10
394.0159988787352
 20
168.3585331657945
 30
0.0
 10
394.0331002163592
 20
168.3254536822415
 30
0.0
 10
394.0859929032776
 20
168.2241562319047
 30
0.0
 10
394.1233179679551
 20
168.1539815433209
 30
0.0
 10
394.1822450598153
 20
168.044928547413
 30
0.0
 10
394.2023822402618
 20
168.0079373652023
 30
0.0
 10
394.2434922716775
 20
167.9329364918182
 30
0.0
 10
394.3064529137368
 20
167.8188293834823
 30
0.0
 10
394.3731600140048
 20
167.7000617968422
 30
0.0
 10
394.5112432287912
 20
167.4566782971198
 30
0.0
 10
394.6095124799963
 20
167.2866377520679
 30
0.0
 10
394.8170745796037
 20
166.9325648664452
 30
0.0
 10
394.9263711995803
 20
166.7485284430086
 30
0.0
 10
395.1549209453857
 20
166.3676657702226
 30
0.0
 10
395.2741765082274
 20
166.1708368685835
 30
0.0
 10
395.4289486417451
 20
165.91739247566
 30
0.0
 10
395.4601886887951
 20
165.8663326308653
 30
0.0
 10
395.523228780157
 20
165.7634836337484
 30
0.0
 10
395.5550524080914
 20
165.7116561735071
 30
0.0
 10
395.6511498287484
 20
165.5554186555401
 30
0.0
 10
395.7160257021583
 20
165.4502922963246
 30
0.0
 10
395.9129374574349
 20
165.1321666257061
 30
0.0
 10
396.0472525873157
 20
164.9164258746845
 30
0.0
 10
396.3213100396035
 20
164.4783245715788
 30
0.0
 10
396.4610538418522
 20
164.2559624997967
 30
0.0
 10
396.7454575616176
 20
163.8051615750992
 30
0.0
 10
396.8901184709219
 20
163.5767216993338
 30
0.0
 10
397.3308623989631
 20
162.882937318464
 30
0.0
 10
397.6336783396308
 20
162.4091590388252
 30
0.0
 10
398.0676630331467
 20
161.7332169113257
 30
0.0
 10
398.1922818034749
 20
161.5394592391903
 30
0.0
 10
398.3180779969517
 20
161.3441778632207
 30
0.0
  0
ENDSEC
  0
SECTION
  2
OBJECTS
  0
DICTIONARY
  5
C
330
0
100
AcDbDictionary
281
     1
  3
ACAD_DETAILVIEWSTYLE
350
1D9
  3
ACAD_GROUP
350
D
  3
ACAD_LAYOUT
350
1A
  3
ACAD_MATERIAL
350
43
  3
ACAD_MLEADERSTYLE
350
6B
  3
ACAD_MLINESTYLE
350
17
  3
ACAD_PLOTSETTINGS
350
19
  3
ACAD_PLOTSTYLENAME
350
E
  3
ACAD_SCALELIST
350
47
  3
ACAD_SECTIONVIEWSTYLE
350
1DA
  3
ACAD_TABLESTYLE
350
69
  3
ACAD_VISUALSTYLE
350
2A
  3
ACDB_RECOMPOSE_DATA
350
1D6
  3
AcDbVariableDictionary
350
196
  0
DICTIONARY
  5
194
330
8
100
AcDbDictionary
280
     1
281
     1
  3
ACAD_XREC_ROUNDTRIP
360
195
  0
DICTIONARY
  5
1D9
102
{ACAD_REACTORS
330
C
102
}
330
C
100
AcDbDictionary
281
     1
  0
DICTIONARY
  5
D
102
{ACAD_REACTORS
330
C
102
}
330
C
100
AcDbDictionary
281
     1
  0
DICTIONARY
  5
1A
102
{ACAD_REACTORS
330
C
102
}
330
C
100
AcDbDictionary
281
     1
  3
Layout1
350
1E
  3
Layout2
350
26
  3
Model
350
22
  0
DICTIONARY
  5
43
102
{ACAD_REACTORS
330
C
102
}
330
C
100
AcDbDictionary
281
     1
  3
ByBlock
350
45
  3
ByLayer
350
44
  3
Global
350
46
  0
DICTIONARY
  5
6B
102
{ACAD_REACTORS
330
C
102
}
330
C
100
AcDbDictionary
281
     1
  3
Standard
350
6C
  0
DICTIONARY
  5
17
102
{ACAD_REACTORS
330
C
102
}
330
C
100
AcDbDictionary
281
     1
  3
Standard
350
18
  0
DICTIONARY
  5
19
102
{ACAD_REACTORS
330
C
102
}
330
C
100
AcDbDictionary
281
     1
  0
ACDBDICTIONARYWDFLT
  5
E
102
{ACAD_REACTORS
330
C
102
}
330
C
100
AcDbDictionary
281
     1
  3
Normal
350
F
100
AcDbDictionaryWithDefault
340
F
  0
DICTIONARY
  5
47
102
{ACAD_REACTORS
330
C
102
}
330
C
100
AcDbDictionary
281
     1
  3
A0
350
48
  3
A1
350
49
  3
A2
350
4A
  3
A3
350
4B
  3
A4
350
4C
  3
A5
350
4D
  3
A6
350
4E
  3
A7
350
4F
  3
A8
350
50
  3
A9
350
51
  3
B0
350
52
  3
B1
350
53
  3
B2
350
54
  3
B3
350
55
  3
B4
350
56
  3
B5
350
57
  3
B6
350
58
  3
B7
350
59
  3
B8
350
5A
  3
B9
350
5B
  3
C0
350
5C
  3
C1
350
5D
  3
C2
350
5E
  3
C3
350
5F
  3
C4
350
60
  3
C5
350
61
  3
C6
350
62
  3
C7
350
63
  3
C8
350
64
  3
C9
350
65
  3
D0
350
66
  3
D1
350
67
  3
D2
350
68
  0
DICTIONARY
  5
1DA
102
{ACAD_REACTORS
330
C
102
}
330
C
100
AcDbDictionary
281
     1
  0
DICTIONARY
  5
69
102
{ACAD_REACTORS
330
C
102
}
330
C
100
AcDbDictionary
281
     1
  3
Standard
350
6A
  0
DICTIONARY
  5
2A
102
{ACAD_REACTORS
330
C
102
}
330
C
100
AcDbDictionary
281
     1
  3
2dWireframe
350
2F
  3
Basic
350
32
  3
Brighten
350
36
  3
ColorChange
350
3A
  3
Conceptual
350
34
  3
Dim
350
35
  3
EdgeColorOff
350
3D
  3
Facepattern
350
39
  3
Flat
350
2B
  3
FlatWithEdges
350
2C
  3
Gouraud
350
2D
  3
GouraudWithEdges
350
2E
  3
Hidden
350
31
  3
JitterOff
350
3B
  3
Linepattern
350
38
  3
OverhangOff
350
3C
  3
Realistic
350
33
  3
Shaded
350
42
  3
Shaded with edges
350
41
  3
Shades of Gray
350
3E
  3
Sketchy
350
3F
  3
Thicken
350
37
  3
Wireframe
350
30
  3
X-Ray
350
40
  0
XRECORD
  5
1D6
102
{ACAD_REACTORS
330
C
102
}
330
C
100
AcDbXrecord
280
     1
 90
        1
330
6A
  0
DICTIONARY
  5
196
102
{ACAD_REACTORS
330
C
102
}
330
C
100
AcDbDictionary
281
     1
  3
CANNOSCALE
350
197
  3
CMLEADERSTYLE
350
1D8
  3
CTABLESTYLE
350
1D7
  3
MSLTSCALE
350
198
  3
XCLIPFRAME
350
199
  0
XRECORD
  5
195
102
{ACAD_REACTORS
330
194
102
}
330
194
100
AcDbXrecord
280
     1
102
VTR_0.000_0.000_1.000_1.000_VISUALSTYLE
340
2F
102
VTR_0.000_0.000_1.000_1.000_GRIDDISPLAY
 70
     3
102
VTR_0.000_0.000_1.000_1.000_GRIDMAJOR
 70
     5
102
VTR_0.000_0.000_1.000_1.000_DEFAULTLIGHTING
280
     1
102
VTR_0.000_0.000_1.000_1.000_DEFAULTLIGHTINGTYPE
 70
     1
102
VTR_0.000_0.000_1.000_1.000_BRIGHTNESS
141
0.0
102
VTR_0.000_0.000_1.000_1.000_CONTRAST
142
0.0
102
VTR_0.000_0.000_0.500_1.000_VISUALSTYLE
340
2F
102
VTR_0.000_0.000_0.500_1.000_GRIDDISPLAY
 70
     3
102
VTR_0.000_0.000_0.500_1.000_GRIDMAJOR
 70
     5
102
VTR_0.000_0.000_0.500_1.000_DEFAULTLIGHTING
280
     1
102
VTR_0.000_0.000_0.500_1.000_DEFAULTLIGHTINGTYPE
 70
     1
102
VTR_0.000_0.000_0.500_1.000_BRIGHTNESS
141
0.0
102
VTR_0.000_0.000_0.500_1.000_CONTRAST
142
0.0
102
VTR_0.500_0.000_1.000_1.000_VISUALSTYLE
340
2F
102
VTR_0.500_0.000_1.000_1.000_GRIDDISPLAY
 70
     3
102
VTR_0.500_0.000_1.000_1.000_GRIDMAJOR
 70
     5
102
VTR_0.500_0.000_1.000_1.000_DEFAULTLIGHTING
280
     1
102
VTR_0.500_0.000_1.000_1.000_DEFAULTLIGHTINGTYPE
 70
     1
102
VTR_0.500_0.000_1.000_1.000_BRIGHTNESS
141
0.0
102
VTR_0.500_0.000_1.000_1.000_CONTRAST
142
0.0
102
VTR_0.000_0.500_1.000_1.000_VISUALSTYLE
340
2F
102
VTR_0.000_0.500_1.000_1.000_GRIDDISPLAY
 70
     3
102
VTR_0.000_0.500_1.000_1.000_GRIDMAJOR
 70
     5
102
VTR_0.000_0.500_1.000_1.000_DEFAULTLIGHTING
280
     1
102
VTR_0.000_0.500_1.000_1.000_DEFAULTLIGHTINGTYPE
 70
     1
102
VTR_0.000_0.500_1.000_1.000_BRIGHTNESS
141
0.0
102
VTR_0.000_0.500_1.000_1.000_CONTRAST
142
0.0
102
VTR_0.000_0.000_1.000_0.500_VISUALSTYLE
340
2F
102
VTR_0.000_0.000_1.000_0.500_GRIDDISPLAY
 70
     3
102
VTR_0.000_0.000_1.000_0.500_GRIDMAJOR
 70
     5
102
VTR_0.000_0.000_1.000_0.500_DEFAULTLIGHTING
280
     1
102
VTR_0.000_0.000_1.000_0.500_DEFAULTLIGHTINGTYPE
 70
     1
102
VTR_0.000_0.000_1.000_0.500_BRIGHTNESS
141
0.0
102
VTR_0.000_0.000_1.000_0.500_CONTRAST
142
0.0
102
VTR_0.000_0.500_0.500_1.000_VISUALSTYLE
340
2F
102
VTR_0.000_0.500_0.500_1.000_GRIDDISPLAY
 70
     3
102
VTR_0.000_0.500_0.500_1.000_GRIDMAJOR
 70
     5
102
VTR_0.000_0.500_0.500_1.000_DEFAULTLIGHTING
280
     1
102
VTR_0.000_0.500_0.500_1.000_DEFAULTLIGHTINGTYPE
 70
     1
102
VTR_0.000_0.500_0.500_1.000_BRIGHTNESS
141
0.0
102
VTR_0.000_0.500_0.500_1.000_CONTRAST
142
0.0
102
VTR_0.000_0.000_0.500_0.500_VISUALSTYLE
340
2F
102
VTR_0.000_0.000_0.500_0.500_GRIDDISPLAY
 70
     3
102
VTR_0.000_0.000_0.500_0.500_GRIDMAJOR
 70
     5
102
VTR_0.000_0.000_0.500_0.500_DEFAULTLIGHTING
280
     1
102
VTR_0.000_0.000_0.500_0.500_DEFAULTLIGHTINGTYPE
 70
     1
102
VTR_0.000_0.000_0.500_0.500_BRIGHTNESS
141
0.0
102
VTR_0.000_0.000_0.500_0.500_CONTRAST
142
0.0
102
VTR_0.500_0.000_1.000_0.500_VISUALSTYLE
340
2F
102
VTR_0.500_0.000_1.000_0.500_GRIDDISPLAY
 70
     3
102
VTR_0.500_0.000_1.000_0.500_GRIDMAJOR
 70
     5
102
VTR_0.500_0.000_1.000_0.500_DEFAULTLIGHTING
280
     1
102
VTR_0.500_0.000_1.000_0.500_DEFAULTLIGHTINGTYPE
 70
     1
102
VTR_0.500_0.000_1.000_0.500_BRIGHTNESS
141
0.0
102
VTR_0.500_0.000_1.000_0.500_CONTRAST
142
0.0
102
VTR_0.500_0.500_1.000_1.000_VISUALSTYLE
340
2F
102
VTR_0.500_0.500_1.000_1.000_GRIDDISPLAY
 70
     3
102
VTR_0.500_0.500_1.000_1.000_GRIDMAJOR
 70
     5
102
VTR_0.500_0.500_1.000_1.000_DEFAULTLIGHTING
280
     1
102
VTR_0.500_0.500_1.000_1.000_DEFAULTLIGHTINGTYPE
 70
     1
102
VTR_0.500_0.500_1.000_1.000_BRIGHTNESS
141
0.0
102
VTR_0.500_0.500_1.000_1.000_CONTRAST
142
0.0
102
VTR_0.000_0.500_0.333_1.000_VISUALSTYLE
340
2F
102
VTR_0.000_0.500_0.333_1.000_GRIDDISPLAY
 70
     3
102
VTR_0.000_0.500_0.333_1.000_GRIDMAJOR
 70
     5
102
VTR_0.000_0.500_0.333_1.000_DEFAULTLIGHTING
280
     1
102
VTR_0.000_0.500_0.333_1.000_DEFAULTLIGHTINGTYPE
 70
     1
102
VTR_0.000_0.500_0.333_1.000_BRIGHTNESS
141
0.0
102
VTR_0.000_0.500_0.333_1.000_CONTRAST
142
0.0
102
VTR_0.000_0.000_0.333_0.500_VISUALSTYLE
340
2F
102
VTR_0.000_0.000_0.333_0.500_GRIDDISPLAY
 70
     3
102
VTR_0.000_0.000_0.333_0.500_GRIDMAJOR
 70
     5
102
VTR_0.000_0.000_0.333_0.500_DEFAULTLIGHTING
280
     1
102
VTR_0.000_0.000_0.333_0.500_DEFAULTLIGHTINGTYPE
 70
     1
102
VTR_0.000_0.000_0.333_0.500_BRIGHTNESS
141
0.0
102
VTR_0.000_0.000_0.333_0.500_CONTRAST
142
0.0
102
VTR_0.333_0.500_0.667_1.000_VISUALSTYLE
340
2F
102
VTR_0.333_0.500_0.667_1.000_GRIDDISPLAY
 70
     3
102
VTR_0.333_0.500_0.667_1.000_GRIDMAJOR
 70
     5
102
VTR_0.333_0.500_0.667_1.000_DEFAULTLIGHTING
280
     1
102
VTR_0.333_0.500_0.667_1.000_DEFAULTLIGHTINGTYPE
 70
     1
102
VTR_0.333_0.500_0.667_1.000_BRIGHTNESS
141
0.0
102
VTR_0.333_0.500_0.667_1.000_CONTRAST
142
0.0
102
VTR_0.333_0.000_0.667_0.500_VISUALSTYLE
340
2F
102
VTR_0.333_0.000_0.667_0.500_GRIDDISPLAY
 70
     3
102
VTR_0.333_0.000_0.667_0.500_GRIDMAJOR
 70
     5
102
VTR_0.333_0.000_0.667_0.500_DEFAULTLIGHTING
280
     1
102
VTR_0.333_0.000_0.667_0.500_DEFAULTLIGHTINGTYPE
 70
     1
102
VTR_0.333_0.000_0.667_0.500_BRIGHTNESS
141
0.0
102
VTR_0.333_0.000_0.667_0.500_CONTRAST
142
0.0
102
VTR_0.667_0.500_1.000_1.000_VISUALSTYLE
340
2F
102
VTR_0.667_0.500_1.000_1.000_GRIDDISPLAY
 70
     3
102
VTR_0.667_0.500_1.000_1.000_GRIDMAJOR
 70
     5
102
VTR_0.667_0.500_1.000_1.000_DEFAULTLIGHTING
280
     1
102
VTR_0.667_0.500_1.000_1.000_DEFAULTLIGHTINGTYPE
 70
     1
102
VTR_0.667_0.500_1.000_1.000_BRIGHTNESS
141
0.0
102
VTR_0.667_0.500_1.000_1.000_CONTRAST
142
0.0
102
VTR_0.667_0.000_1.000_0.500_VISUALSTYLE
340
2F
102
VTR_0.667_0.000_1.000_0.500_GRIDDISPLAY
 70
     3
102
VTR_0.667_0.000_1.000_0.500_GRIDMAJOR
 70
     5
102
VTR_0.667_0.000_1.000_0.500_DEFAULTLIGHTING
280
     1
102
VTR_0.667_0.000_1.000_0.500_DEFAULTLIGHTINGTYPE
 70
     1
102
VTR_0.667_0.000_1.000_0.500_BRIGHTNESS
141
0.0
102
VTR_0.667_0.000_1.000_0.500_CONTRAST
142
0.0
  0
LAYOUT
  5
1E
102
{ACAD_REACTORS
330
1A
102
}
330
1A
100
AcDbPlotSettings
  1

  2
none_device
  4

  6

 40
0.0
 41
0.0
 42
0.0
 43
0.0
 44
0.0
 45
0.0
 46
0.0
 47
0.0
 48
0.0
 49
0.0
140
0.0
141
0.0
142
1.0
143
1.0
 70
   688
 72
     0
 73
     0
 74
     5
  7

 75
    16
 76
     0
 77
     2
 78
   300
147
1.0
148
0.0
149
0.0
100
AcDbLayout
  1
Layout1
 70
     1
 71
     1
 10
-0.5
 20
-0.5
 11
5.0
 21
5.0
 12
0.0
 22
0.0
 32
0.0
 14
-0.5
 24
-0.5
 34
-0.5
 15
5.0
 25
5.0
 35
5.0
146
0.0
 13
0.0
 23
0.0
 33
0.0
 16
1.0
 26
0.0
 36
0.0
 17
0.0
 27
1.0
 37
0.0
 76
     0
330
1B
  0
LAYOUT
  5
26
102
{ACAD_REACTORS
330
1A
102
}
330
1A
100
AcDbPlotSettings
  1

  2
none_device
  4

  6

 40
0.0
 41
0.0
 42
0.0
 43
0.0
 44
0.0
 45
0.0
 46
0.0
 47
0.0
 48
0.0
 49
0.0
140
0.0
141
0.0
142
1.0
143
1.0
 70
   688
 72
     0
 73
     0
 74
     5
  7

 75
    16
 76
     0
 77
     2
 78
   300
147
1.0
148
0.0
149
0.0
100
AcDbLayout
  1
Layout2
 70
     1
 71
     2
 10
0.0
 20
0.0
 11
0.0
 21
0.0
 12
0.0
 22
0.0
 32
0.0
 14
0.0
 24
0.0
 34
0.0
 15
0.0
 25
0.0
 35
0.0
146
0.0
 13
0.0
 23
0.0
 33
0.0
 16
1.0
 26
0.0
 36
0.0
 17
0.0
 27
1.0
 37
0.0
 76
     0
330
23
  0
LAYOUT
  5
22
102
{ACAD_REACTORS
330
1A
102
}
330
1A
100
AcDbPlotSettings
  1

  2
none_device
  4
Letter_(8.50_x_11.00_Inches)
  6

 40
6.35
 41
6.35
 42
6.350005
 43
6.350005
 44
215.9
 45
279.4
 46
0.0
 47
0.0
 48
0.0
 49
0.0
140
0.0
141
0.0
142
1.0
143
1.0
 70
  1712
 72
     0
 73
     0
 74
     0
  7

 75
     0
 76
     0
 77
     2
 78
   300
147
1.0
148
0.0
149
0.0
100
AcDbLayout
  1
Model
 70
     1
 71
     0
 10
-0.5
 20
-0.5
 11
5.0
 21
5.0
 12
0.0
 22
0.0
 32
0.0
 14
-0.5
 24
-0.5
 34
-0.5
 15
5.0
 25
5.0
 35
5.0
146
0.0
 13
0.0
 23
0.0
 33
0.0
 16
1.0
 26
0.0
 36
0.0
 17
0.0
 27
1.0
 37
0.0
 76
     0
330
1F
331
29
  0
MATERIAL
  5
45
102
{ACAD_REACTORS
330
43
102
}
102
{ACAD_XDICTIONARY
360
1CC
102
}
330
43
100
AcDbMaterial
  1
ByBlock
  0
MATERIAL
  5
44
102
{ACAD_REACTORS
330
43
102
}
102
{ACAD_XDICTIONARY
360
1CA
102
}
330
43
100
AcDbMaterial
  1
ByLayer
  0
MATERIAL
  5
46
102
{ACAD_REACTORS
330
43
102
}
102
{ACAD_XDICTIONARY
360
1CE
102
}
330
43
100
AcDbMaterial
  1
Global
  0
MLEADERSTYLE
  5
6C
102
{ACAD_REACTORS
330
6B
102
}
102
{ACAD_XDICTIONARY
360
1D4
102
}
330
6B
100
AcDbMLeaderStyle
170
     2
171
     1
172
     0
 90
        2
 40
0.0
 41
0.0
173
     1
 91
-1056964608
340
14
 92
       -2
290
     1
 42
0.09
291
     1
 43
0.36
  3
Standard
341
0
 44
0.18
300

342
11
174
     1
178
     6
175
     1
176
     0
 93
-1056964608
 45
0.18
292
     0
297
     0
 46
0.18
343
0
 94
-1056964608
 47
1.0
 49
1.0
140
1.0
293
     1
141
0.0
294
     1
177
     0
142
1.0
295
     0
296
     0
143
0.125
1001
ACAD_MLEADERVER
1070
     2
  0
MLINESTYLE
  5
18
102
{ACAD_REACTORS
330
17
102
}
330
17
100
AcDbMlineStyle
  2
Standard
 70
     0
  3

 62
   256
 51
90.0
 52
90.0
 71
     2
 49
0.5
 62
   256
  6
BYLAYER
 49
-0.5
 62
   256
  6
BYLAYER
  0
ACDBPLACEHOLDER
  5
F
102
{ACAD_REACTORS
330
E
102
}
330
E
  0
SCALE
  5
48
102
{ACAD_REACTORS
330
47
102
}
330
47
100
AcDbScale
 70
     0
300
1:1
140
1.0
141
1.0
290
     1
  0
SCALE
  5
49
102
{ACAD_REACTORS
330
47
102
}
330
47
100
AcDbScale
 70
     0
300
1:2
140
1.0
141
2.0
290
     0
  0
SCALE
  5
4A
102
{ACAD_REACTORS
330
47
102
}
330
47
100
AcDbScale
 70
     0
300
1:4
140
1.0
141
4.0
290
     0
  0
SCALE
  5
4B
102
{ACAD_REACTORS
330
47
102
}
330
47
100
AcDbScale
 70
     0
300
1:5
140
1.0
141
5.0
290
     0
  0
SCALE
  5
4C
102
{ACAD_REACTORS
330
47
102
}
330
47
100
AcDbScale
 70
     0
300
1:8
140
1.0
141
8.0
290
     0
  0
SCALE
  5
4D
102
{ACAD_REACTORS
330
47
102
}
330
47
100
AcDbScale
 70
     0
300
1:10
140
1.0
141
10.0
290
     0
  0
SCALE
  5
4E
102
{ACAD_REACTORS
330
47
102
}
330
47
100
AcDbScale
 70
     0
300
1:16
140
1.0
141
16.0
290
     0
  0
SCALE
  5
4F
102
{ACAD_REACTORS
330
47
102
}
330
47
100
AcDbScale
 70
     0
300
1:20
140
1.0
141
20.0
290
     0
  0
SCALE
  5
50
102
{ACAD_REACTORS
330
47
102
}
330
47
100
AcDbScale
 70
     0
300
1:30
140
1.0
141
30.0
290
     0
  0
SCALE
  5
51
102
{ACAD_REACTORS
330
47
102
}
330
47
100
AcDbScale
 70
     0
300
1:40
140
1.0
141
40.0
290
     0
  0
SCALE
  5
52
102
{ACAD_REACTORS
330
47
102
}
330
47
100
AcDbScale
 70
     0
300
1:50
140
1.0
141
50.0
290
     0
  0
SCALE
  5
53
102
{ACAD_REACTORS
330
47
102
}
330
47
100
AcDbScale
 70
     0
300
1:100
140
1.0
141
100.0
290
     0
  0
SCALE
  5
54
102
{ACAD_REACTORS
330
47
102
}
330
47
100
AcDbScale
 70
     0
300
2:1
140
2.0
141
1.0
290
     0
  0
SCALE
  5
55
102
{ACAD_REACTORS
330
47
102
}
330
47
100
AcDbScale
 70
     0
300
4:1
140
4.0
141
1.0
290
     0
  0
SCALE
  5
56
102
{ACAD_REACTORS
330
47
102
}
330
47
100
AcDbScale
 70
     0
300
8:1
140
8.0
141
1.0
290
     0
  0
SCALE
  5
57
102
{ACAD_REACTORS
330
47
102
}
330
47
100
AcDbScale
 70
     0
300
10:1
140
10.0
141
1.0
290
     0
  0
SCALE
  5
58
102
{ACAD_REACTORS
330
47
102
}
330
47
100
AcDbScale
 70
     0
300
100:1
140
100.0
141
1.0
290
     0
  0
SCALE
  5
59
102
{ACAD_REACTORS
330
47
102
}
330
47
100
AcDbScale
 70
     0
300
1/128" = 1'-0"
140
0.007812
141
12.0
290
     0
  0
SCALE
  5
5A
102
{ACAD_REACTORS
330
47
102
}
330
47
100
AcDbScale
 70
     0
300
1/64" = 1'-0"
140
0.015625
141
12.0
290
     0
  0
SCALE
  5
5B
102
{ACAD_REACTORS
330
47
102
}
330
47
100
AcDbScale
 70
     0
300
1/32" = 1'-0"
140
0.03125
141
12.0
290
     0
  0
SCALE
  5
5C
102
{ACAD_REACTORS
330
47
102
}
330
47
100
AcDbScale
 70
     0
300
1/16" = 1'-0"
140
0.0625
141
12.0
290
     0
  0
SCALE
  5
5D
102
{ACAD_REACTORS
330
47
102
}
330
47
100
AcDbScale
 70
     0
300
3/32" = 1'-0"
140
0.09375
141
12.0
290
     0
  0
SCALE
  5
5E
102
{ACAD_REACTORS
330
47
102
}
330
47
100
AcDbScale
 70
     0
300
1/8" = 1'-0"
140
0.125
141
12.0
290
     0
  0
SCALE
  5
5F
102
{ACAD_REACTORS
330
47
102
}
330
47
100
AcDbScale
 70
     0
300
3/16" = 1'-0"
140
0.1875
141
12.0
290
     0
  0
SCALE
  5
60
102
{ACAD_REACTORS
330
47
102
}
330
47
100
AcDbScale
 70
     0
300
1/4" = 1'-0"
140
0.25
141
12.0
290
     0
  0
SCALE
  5
61
102
{ACAD_REACTORS
330
47
102
}
330
47
100
AcDbScale
 70
     0
300
3/8" = 1'-0"
140
0.375
141
12.0
290
     0
  0
SCALE
  5
62
102
{ACAD_REACTORS
330
47
102
}
330
47
100
AcDbScale
 70
     0
300
1/2" = 1'-0"
140
0.5
141
12.0
290
     0
  0
SCALE
  5
63
102
{ACAD_REACTORS
330
47
102
}
330
47
100
AcDbScale
 70
     0
300
3/4" = 1'-0"
140
0.75
141
12.0
290
     0
  0
SCALE
  5
64
102
{ACAD_REACTORS
330
47
102
}
330
47
100
AcDbScale
 70
     0
300
1" = 1'-0"
140
1.0
141
12.0
290
     0
  0
SCALE
  5
65
102
{ACAD_REACTORS
330
47
102
}
330
47
100
AcDbScale
 70
     0
300
1-1/2" = 1'-0"
140
1.5
141
12.0
290
     0
  0
SCALE
  5
66
102
{ACAD_REACTORS
330
47
102
}
330
47
100
AcDbScale
 70
     0
300
3" = 1'-0"
140
3.0
141
12.0
290
     0
  0
SCALE
  5
67
102
{ACAD_REACTORS
330
47
102
}
330
47
100
AcDbScale
 70
     0
300
6" = 1'-0"
140
6.0
141
12.0
290
     0
  0
SCALE
  5
68
102
{ACAD_REACTORS
330
47
102
}
330
47
100
AcDbScale
 70
     0
300
1'-0" = 1'-0"
140
12.0
141
12.0
290
     0
  0
TABLESTYLE
  5
6A
102
{ACAD_REACTORS
330
69
102
}
102
{ACAD_XDICTIONARY
360
1D0
102
}
330
69
100
AcDbTableStyle
  3
Standard
 70
     0
 71
     0
 40
0.06
 41
0.06
280
     0
281
     0
  7
Standard
140
0.18
170
     2
 62
     0
 63
   257
283
     0
274
    -2
284
     1
 64
     0
275
    -2
285
     1
 65
     0
276
    -2
286
     1
 66
     0
277
    -2
287
     1
 67
     0
278
    -2
288
     1
 68
     0
279
    -2
289
     1
 69
     0
  7
Standard
140
0.25
170
     5
 62
     0
 63
   257
283
     0
274
    -2
284
     1
 64
     0
275
    -2
285
     1
 65
     0
276
    -2
286
     1
 66
     0
277
    -2
287
     1
 67
     0
278
    -2
288
     1
 68
     0
279
    -2
289
     1
 69
     0
  7
Standard
140
0.18
170
     5
 62
     0
 63
   257
283
     0
274
    -2
284
     1
 64
     0
275
    -2
285
     1
 65
     0
276
    -2
286
     1
 66
     0
277
    -2
287
     1
 67
     0
278
    -2
288
     1
 68
     0
279
    -2
289
     1
 69
     0
  0
VISUALSTYLE
  5
2F
102
{ACAD_REACTORS
330
2A
102
}
102
{ACAD_XDICTIONARY
360
1A2
102
}
330
2A
100
AcDbVisualStyle
  2
2dWireframe
 70
     4
 71
     0
 72
     2
 73
     0
 90
        0
 40
0.6
 41
30.0
 62
     5
 63
     7
421
 16777215
 74
     1
 91
        4
 64
     7
 65
   257
 75
     1
175
     1
 42
1.0
 92
        0
 66
   257
 43
1.0
 76
     1
 77
     6
 78
     2
 67
     7
 79
     5
170
     0
171
     0
290
     0
174
     0
 93
        1
 44
0.0
173
     0
291
     0
 45
0.0
1001
ACAD
1000
AcDbSavedByObjectVersion
1070
     0
  0
VISUALSTYLE
  5
32
102
{ACAD_REACTORS
330
2A
102
}
102
{ACAD_XDICTIONARY
360
1A8
102
}
330
2A
100
AcDbVisualStyle
  2
Basic
 70
     7
 71
     1
 72
     0
 73
     1
 90
        0
 40
0.6
 41
30.0
 62
     5
 63
     7
421
 16777215
 74
     0
 91
        4
 64
     7
 65
   257
 75
     1
175
     1
 42
1.0
 92
        8
 66
     7
 43
1.0
 76
     1
 77
     6
 78
     2
 67
     7
 79
     5
170
     0
171
     0
290
     0
174
     0
 93
        1
 44
0.0
173
     0
291
     1
 45
0.0
1001
ACAD
1000
AcDbSavedByObjectVersion
1070
     0
  0
VISUALSTYLE
  5
36
102
{ACAD_REACTORS
330
2A
102
}
102
{ACAD_XDICTIONARY
360
1B0
102
}
330
2A
100
AcDbVisualStyle
  2
Brighten
 70
    12
 71
     2
 72
     2
 73
     0
 90
        0
 40
0.6
 41
30.0
 62
     5
 63
     7
421
 16777215
 74
     1
 91
        4
 64
     7
 65
   257
 75
     1
175
     1
 42
1.0
 92
        8
 66
     7
 43
1.0
 76
     1
 77
     6
 78
     2
 67
     7
 79
     5
170
     0
171
     0
290
     0
174
     0
 93
        1
 44
50.0
173
     0
291
     1
 45
0.0
1001
ACAD
1000
AcDbSavedByObjectVersion
1070
     0
  0
VISUALSTYLE
  5
3A
102
{ACAD_REACTORS
330
2A
102
}
102
{ACAD_XDICTIONARY
360
1B8
102
}
330
2A
100
AcDbVisualStyle
  2
ColorChange
 70
    16
 71
     2
 72
     2
 73
     3
 90
        0
 40
0.6
 41
30.0
 62
     5
 63
     8
421
  8421504
 74
     1
 91
        4
 64
     7
 65
   257
 75
     1
175
     1
 42
1.0
 92
        8
 66
     8
424
  8421504
 43
1.0
 76
     1
 77
     6
 78
     2
 67
     7
 79
     5
170
     0
171
     0
290
     0
174
     0
 93
        1
 44
0.0
173
     0
291
     1
 45
0.0
1001
ACAD
1000
AcDbSavedByObjectVersion
1070
     0
  0
VISUALSTYLE
  5
34
102
{ACAD_REACTORS
330
2A
102
}
102
{ACAD_XDICTIONARY
360
1AC
102
}
330
2A
100
AcDbVisualStyle
  2
Conceptual
 70
     9
 71
     3
 72
     2
 73
     0
 90
        0
 40
0.6
 41
30.0
 62
     5
 63
     7
421
 16777215
 74
     2
 91
        2
 64
     7
 65
   257
 75
     1
175
     1
 42
179.0
 92
        8
 66
     7
 43
1.0
 76
     1
 77
     6
 78
     2
 67
     7
 79
     3
170
     0
171
     0
290
     0
174
     0
 93
        1
 44
0.0
173
     0
291
     0
 45
0.0
1001
ACAD
1000
AcDbSavedByObjectVersion
1070
     0
  0
VISUALSTYLE
  5
35
102
{ACAD_REACTORS
330
2A
102
}
102
{ACAD_XDICTIONARY
360
1AE
102
}
330
2A
100
AcDbVisualStyle
  2
Dim
 70
    11
 71
     2
 72
     2
 73
     0
 90
        0
 40
0.6
 41
30.0
 62
     5
 63
     7
421
 16777215
 74
     1
 91
        4
 64
     7
 65
   257
 75
     1
175
     1
 42
1.0
 92
        8
 66
     7
 43
1.0
 76
     1
 77
     6
 78
     2
 67
     7
 79
     5
170
     0
171
     0
290
     0
174
     0
 93
        1
 44
-50.0
173
     0
291
     1
 45
0.0
1001
ACAD
1000
AcDbSavedByObjectVersion
1070
     0
  0
VISUALSTYLE
  5
3D
102
{ACAD_REACTORS
330
2A
102
}
102
{ACAD_XDICTIONARY
360
1BE
102
}
330
2A
100
AcDbVisualStyle
  2
EdgeColorOff
 70
    22
 71
     2
 72
     2
 73
     0
 90
        0
 40
0.6
 41
30.0
 62
     5
 63
     7
421
 16777215
 74
     1
 91
        4
 64
     7
 65
   257
 75
     1
175
     1
 42
1.0
 92
        8
 66
     7
 43
1.0
 76
     1
 77
     6
 78
     2
 67
     7
 79
     5
170
     0
171
     0
290
     0
174
     0
 93
        1
 44
0.0
173
     0
291
     1
 45
0.0
1001
ACAD
1000
AcDbSavedByObjectVersion
1070
     0
  0
VISUALSTYLE
  5
39
102
{ACAD_REACTORS
330
2A
102
}
102
{ACAD_XDICTIONARY
360
1B6
102
}
330
2A
100
AcDbVisualStyle
  2
Facepattern
 70
    15
 71
     2
 72
     2
 73
     0
 90
        0
 40
0.6
 41
30.0
 62
     5
 63
     7
421
 16777215
 74
     1
 91
        4
 64
     7
 65
   257
 75
     1
175
     1
 42
1.0
 92
        8
 66
     7
 43
1.0
 76
     1
 77
     6
 78
     2
 67
     7
 79
     5
170
     0
171
     0
290
     0
174
     0
 93
        1
 44
0.0
173
     0
291
     1
 45
0.0
1001
ACAD
1000
AcDbSavedByObjectVersion
1070
     0
  0
VISUALSTYLE
  5
2B
102
{ACAD_REACTORS
330
2A
102
}
102
{ACAD_XDICTIONARY
360
19A
102
}
330
2A
100
AcDbVisualStyle
  2
Flat
 70
     0
 71
     2
 72
     1
 73
     1
 90
        2
 40
0.6
 41
30.0
 62
     5
 63
     7
421
 16777215
 74
     0
 91
        0
 64
     7
 65
   257
 75
     1
175
     1
 42
1.0
 92
        8
 66
     7
 43
1.0
 76
     1
 77
     6
 78
     2
 67
     7
 79
     5
170
     0
171
     0
290
     0
174
     0
 93
       13
 44
0.0
173
     0
291
     1
 45
0.0
1001
ACAD
1000
AcDbSavedByObjectVersion
1070
     0
  0
VISUALSTYLE
  5
2C
102
{ACAD_REACTORS
330
2A
102
}
102
{ACAD_XDICTIONARY
360
19C
102
}
330
2A
100
AcDbVisualStyle
  2
FlatWithEdges
 70
     1
 71
     2
 72
     1
 73
     1
 90
        2
 40
0.6
 41
30.0
 62
     5
 63
     7
421
 16777215
 74
     1
 91
        0
 64
     7
 65
   257
 75
     1
175
     1
 42
1.0
 92
        0
 66
   257
 43
1.0
 76
     1
 77
     6
 78
     2
 67
     7
 79
     5
170
     0
171
     0
290
     0
174
     0
 93
       13
 44
0.0
173
     0
291
     1
 45
0.0
1001
ACAD
1000
AcDbSavedByObjectVersion
1070
     0
  0
VISUALSTYLE
  5
2D
102
{ACAD_REACTORS
330
2A
102
}
102
{ACAD_XDICTIONARY
360
19E
102
}
330
2A
100
AcDbVisualStyle
  2
Gouraud
 70
     2
 71
     2
 72
     2
 73
     1
 90
        2
 40
0.6
 41
30.0
 62
     5
 63
     7
421
 16777215
 74
     0
 91
        0
 64
     7
 65
   257
 75
     1
175
     1
 42
1.0
 92
        0
 66
     7
 43
1.0
 76
     1
 77
     6
 78
     2
 67
     7
 79
     5
170
     0
171
     0
290
     0
174
     0
 93
       13
 44
0.0
173
     0
291
     1
 45
0.0
1001
ACAD
1000
AcDbSavedByObjectVersion
1070
     0
  0
VISUALSTYLE
  5
2E
102
{ACAD_REACTORS
330
2A
102
}
102
{ACAD_XDICTIONARY
360
1A0
102
}
330
2A
100
AcDbVisualStyle
  2
GouraudWithEdges
 70
     3
 71
     2
 72
     2
 73
     1
 90
        2
 40
0.6
 41
30.0
 62
     5
 63
     7
421
 16777215
 74
     1
 91
        0
 64
     7
 65
   257
 75
     1
175
     1
 42
1.0
 92
        0
 66
   257
 43
1.0
 76
     1
 77
     6
 78
     2
 67
     7
 79
     5
170
     0
171
     0
290
     0
174
     0
 93
       13
 44
0.0
173
     0
291
     1
 45
0.0
1001
ACAD
1000
AcDbSavedByObjectVersion
1070
     0
  0
VISUALSTYLE
  5
31
102
{ACAD_REACTORS
330
2A
102
}
102
{ACAD_XDICTIONARY
360
1A6
102
}
330
2A
100
AcDbVisualStyle
  2
Hidden
 70
     6
 71
     1
 72
     2
 73
     2
 90
        0
 40
0.6
 41
30.0
 62
     5
 63
     7
421
 16777215
 74
     2
 91
        2
 64
     7
 65
   257
 75
     2
175
     1
 42
40.0
 92
        0
 66
   257
 43
1.0
 76
     1
 77
     6
 78
     2
 67
     7
 79
     3
170
     0
171
     0
290
     0
174
     0
 93
        1
 44
0.0
173
     0
291
     0
 45
0.0
1001
ACAD
1000
AcDbSavedByObjectVersion
1070
     0
  0
VISUALSTYLE
  5
3B
102
{ACAD_REACTORS
330
2A
102
}
102
{ACAD_XDICTIONARY
360
1BA
102
}
330
2A
100
AcDbVisualStyle
  2
JitterOff
 70
    20
 71
     2
 72
     2
 73
     0
 90
        0
 40
0.6
 41
30.0
 62
     5
 63
     7
421
 16777215
 74
     1
 91
        4
 64
     7
 65
   257
 75
     1
175
     1
 42
1.0
 92
       10
 66
     7
 43
1.0
 76
     1
 77
     6
 78
     2
 67
     7
 79
     5
170
     0
171
     0
290
     0
174
     0
 93
        1
 44
0.0
173
     0
291
     1
 45
0.0
1001
ACAD
1000
AcDbSavedByObjectVersion
1070
     0
  0
VISUALSTYLE
  5
38
102
{ACAD_REACTORS
330
2A
102
}
102
{ACAD_XDICTIONARY
360
1B4
102
}
330
2A
100
AcDbVisualStyle
  2
Linepattern
 70
    14
 71
     2
 72
     2
 73
     0
 90
        0
 40
0.6
 41
30.0
 62
     5
 63
     7
421
 16777215
 74
     1
 91
        4
 64
     7
 65
   257
 75
     7
175
     7
 42
1.0
 92
        8
 66
     7
 43
1.0
 76
     1
 77
     6
 78
     2
 67
     7
 79
     5
170
     0
171
     0
290
     0
174
     0
 93
        1
 44
0.0
173
     0
291
     1
 45
0.0
1001
ACAD
1000
AcDbSavedByObjectVersion
1070
     0
  0
VISUALSTYLE
  5
3C
102
{ACAD_REACTORS
330
2A
102
}
102
{ACAD_XDICTIONARY
360
1BC
102
}
330
2A
100
AcDbVisualStyle
  2
OverhangOff
 70
    21
 71
     2
 72
     2
 73
     0
 90
        0
 40
0.6
 41
30.0
 62
     5
 63
     7
421
 16777215
 74
     1
 91
        4
 64
     7
 65
   257
 75
     1
175
     1
 42
1.0
 92
        9
 66
     7
 43
1.0
 76
     1
 77
     6
 78
     2
 67
     7
 79
     5
170
     0
171
     0
290
     0
174
     0
 93
        1
 44
0.0
173
     0
291
     1
 45
0.0
1001
ACAD
1000
AcDbSavedByObjectVersion
1070
     0
  0
VISUALSTYLE
  5
33
102
{ACAD_REACTORS
330
2A
102
}
102
{ACAD_XDICTIONARY
360
1AA
102
}
330
2A
100
AcDbVisualStyle
  2
Realistic
 70
     8
 71
     2
 72
     3
 73
     0
 90
        2
 40
0.6
 41
30.0
 62
     5
 63
     7
421
 16777215
 74
     0
 91
        0
 64
     7
 65
   257
 75
     1
175
     1
 42
1.0
 92
        8
 66
   257
 43
1.0
 76
     1
 77
     6
 78
     2
 67
     7
 79
     3
170
     0
171
     0
290
     0
174
     0
 93
       13
 44
0.0
173
     0
291
     0
 45
0.0
1001
ACAD
1000
AcDbSavedByObjectVersion
1070
     0
  0
VISUALSTYLE
  5
42
102
{ACAD_REACTORS
330
2A
102
}
102
{ACAD_XDICTIONARY
360
1C8
102
}
330
2A
100
AcDbVisualStyle
  2
Shaded
 70
    27
 71
     2
 72
     2
 73
     1
 90
        2
 40
0.6
 41
30.0
 62
     5
 63
     7
421
 16777215
 74
     0
 91
        4
 64
     7
 65
   257
 75
     1
175
     1
 42
1.0
 92
        8
 66
   257
 43
1.0
 76
     1
 77
     6
 78
     2
 67
     8
425
  7895160
 79
     3
170
     0
171
     0
290
     0
174
     0
 93
        5
 44
0.0
173
     0
291
     0
 45
0.0
1001
ACAD
1000
AcDbSavedByObjectVersion
1070
     0
  0
VISUALSTYLE
  5
41
102
{ACAD_REACTORS
330
2A
102
}
102
{ACAD_XDICTIONARY
360
1C6
102
}
330
2A
100
AcDbVisualStyle
  2
Shaded with edges
 70
    26
 71
     2
 72
     2
 73
     1
 90
        2
 40
0.6
 41
30.0
 62
     5
 63
     7
421
 16777215
 74
     1
 91
       10
 64
     7
 65
   257
 75
     2
175
     1
 42
1.0
 92
        8
 66
   257
 43
1.0
 76
     1
 77
     6
 78
     2
 67
     7
 79
     3
170
     0
171
     0
290
     0
174
     0
 93
        5
 44
0.0
173
     0
291
     0
 45
0.0
1001
ACAD
1000
AcDbSavedByObjectVersion
1070
     0
  0
VISUALSTYLE
  5
3E
102
{ACAD_REACTORS
330
2A
102
}
102
{ACAD_XDICTIONARY
360
1C0
102
}
330
2A
100
AcDbVisualStyle
  2
Shades of Gray
 70
    23
 71
     2
 72
     2
 73
     3
 90
        0
 40
0.6
 41
30.0
 62
     5
 63
     7
421
 16777215
 74
     2
 91
        2
 64
     7
 65
     7
 75
     1
175
     1
 42
40.0
 92
        8
 66
     7
 43
1.0
 76
     1
 77
     6
 78
     2
 67
     7
 79
     3
170
     0
171
     0
290
     0
174
     0
 93
        1
 44
0.0
173
     0
291
     0
 45
0.0
1001
ACAD
1000
AcDbSavedByObjectVersion
1070
     0
  0
VISUALSTYLE
  5
3F
102
{ACAD_REACTORS
330
2A
102
}
102
{ACAD_XDICTIONARY
360
1C2
102
}
330
2A
100
AcDbVisualStyle
  2
Sketchy
 70
    24
 71
     1
 72
     2
 73
     2
 90
        0
 40
0.6
 41
30.0
 62
     5
 63
     7
421
 16777215
 74
     2
 91
        2
 64
     7
 65
     7
 75
     1
175
     1
 42
40.0
 92
       11
 66
     7
 43
1.0
 76
     1
 77
     6
 78
     2
 67
     7
 79
     6
170
     0
171
     0
290
     0
174
     0
 93
        1
 44
0.0
173
     0
291
     0
 45
0.0
1001
ACAD
1000
AcDbSavedByObjectVersion
1070
     0
  0
VISUALSTYLE
  5
37
102
{ACAD_REACTORS
330
2A
102
}
102
{ACAD_XDICTIONARY
360
1B2
102
}
330
2A
100
AcDbVisualStyle
  2
Thicken
 70
    13
 71
     2
 72
     2
 73
     0
 90
        0
 40
0.6
 41
30.0
 62
     5
 63
     7
421
 16777215
 74
     1
 91
        4
 64
     7
 65
   257
 75
     1
175
     1
 42
1.0
 92
       12
 66
     7
 43
1.0
 76
     1
 77
     6
 78
     2
 67
     7
 79
     5
170
     0
171
     0
290
     0
174
     0
 93
        1
 44
0.0
173
     0
291
     1
 45
0.0
1001
ACAD
1000
AcDbSavedByObjectVersion
1070
     0
  0
VISUALSTYLE
  5
30
102
{ACAD_REACTORS
330
2A
102
}
102
{ACAD_XDICTIONARY
360
1A4
102
}
330
2A
100
AcDbVisualStyle
  2
Wireframe
 70
     5
 71
     0
 72
     2
 73
     0
 90
        0
 40
0.6
 41
30.0
 62
     5
 63
     7
421
 16777215
 74
     1
 91
        4
 64
     7
 65
   257
 75
     1
175
     1
 42
1.0
 92
        0
 66
   257
 43
1.0
 76
     1
 77
     6
 78
     2
 67
     7
 79
     3
170
     0
171
     0
290
     0
174
     0
 93
        1
 44
0.0
173
     0
291
     0
 45
0.0
1001
ACAD
1000
AcDbSavedByObjectVersion
1070
     0
  0
VISUALSTYLE
  5
40
102
{ACAD_REACTORS
330
2A
102
}
102
{ACAD_XDICTIONARY
360
1C4
102
}
330
2A
100
AcDbVisualStyle
  2
X-Ray
 70
    25
 71
     2
 72
     2
 73
     1
 90
        1
 40
0.5
 41
30.0
 62
     5
 63
     7
421
 16777215
 74
     1
 91
        0
 64
     7
 65
   257
 75
     1
175
     1
 42
1.0
 92
        8
 66
     7
 43
1.0
 76
     1
 77
     6
 78
     2
 67
     7
 79
     3
170
     0
171
     0
290
     0
174
     0
 93
       13
 44
0.0
173
     0
291
     0
 45
0.0
1001
ACAD
1000
AcDbSavedByObjectVersion
1070
     0
  0
DICTIONARYVAR
  5
197
102
{ACAD_REACTORS
330
196
102
}
330
196
100
DictionaryVariables
280
     0
  1
1:1
  0
DICTIONARYVAR
  5
1D8
102
{ACAD_REACTORS
330
196
102
}
330
196
100
DictionaryVariables
280
     0
  1
Standard
  0
DICTIONARYVAR
  5
1D7
102
{ACAD_REACTORS
330
196
102
}
330
196
100
DictionaryVariables
280
     0
  1
Standard
  0
DICTIONARYVAR
  5
198
102
{ACAD_REACTORS
330
196
102
}
330
196
100
DictionaryVariables
280
     0
  1
1
  0
DICTIONARYVAR
  5
199
102
{ACAD_REACTORS
330
196
102
}
330
196
100
DictionaryVariables
280
     0
  1
2
  0
DICTIONARY
  5
1CC
330
45
100
AcDbDictionary
280
     1
281
     1
  3
ACAD_XREC_ROUNDTRIP
360
1CD
  0
DICTIONARY
  5
1CA
330
44
100
AcDbDictionary
280
     1
281
     1
  3
ACAD_XREC_ROUNDTRIP
360
1CB
  0
DICTIONARY
  5
1CE
330
46
100
AcDbDictionary
280
     1
281
     1
  3
ACAD_XREC_ROUNDTRIP
360
1CF
  0
DICTIONARY
  5
1D4
330
6C
100
AcDbDictionary
280
     1
281
     1
  3
ACAD_XREC_ROUNDTRIP
360
1D5
  0
DICTIONARY
  5
1D0
330
6A
100
AcDbDictionary
280
     1
281
     1
  3
ACAD_ROUNDTRIP_2008_TABLESTYLE_CELLSTYLEMAP
360
1D2
  3
ACAD_XREC_ROUNDTRIP
360
1D1
  0
DICTIONARY
  5
1A2
330
2F
100
AcDbDictionary
280
     1
281
     1
  3
ACAD_XREC_ROUNDTRIP
360
1A3
  0
DICTIONARY
  5
1A8
330
32
100
AcDbDictionary
280
     1
281
     1
  3
ACAD_XREC_ROUNDTRIP
360
1A9
  0
DICTIONARY
  5
1B0
330
36
100
AcDbDictionary
280
     1
281
     1
  3
ACAD_XREC_ROUNDTRIP
360
1B1
  0
DICTIONARY
  5
1B8
330
3A
100
AcDbDictionary
280
     1
281
     1
  3
ACAD_XREC_ROUNDTRIP
360
1B9
  0
DICTIONARY
  5
1AC
330
34
100
AcDbDictionary
280
     1
281
     1
  3
ACAD_XREC_ROUNDTRIP
360
1AD
  0
DICTIONARY
  5
1AE
330
35
100
AcDbDictionary
280
     1
281
     1
  3
ACAD_XREC_ROUNDTRIP
360
1AF
  0
DICTIONARY
  5
1BE
330
3D
100
AcDbDictionary
280
     1
281
     1
  3
ACAD_XREC_ROUNDTRIP
360
1BF
  0
DICTIONARY
  5
1B6
330
39
100
AcDbDictionary
280
     1
281
     1
  3
ACAD_XREC_ROUNDTRIP
360
1B7
  0
DICTIONARY
  5
19A
330
2B
100
AcDbDictionary
280
     1
281
     1
  3
ACAD_XREC_ROUNDTRIP
360
19B
  0
DICTIONARY
  5
19C
330
2C
100
AcDbDictionary
280
     1
281
     1
  3
ACAD_XREC_ROUNDTRIP
360
19D
  0
DICTIONARY
  5
19E
330
2D
100
AcDbDictionary
280
     1
281
     1
  3
ACAD_XREC_ROUNDTRIP
360
19F
  0
DICTIONARY
  5
1A0
330
2E
100
AcDbDictionary
280
     1
281
     1
  3
ACAD_XREC_ROUNDTRIP
360
1A1
  0
DICTIONARY
  5
1A6
330
31
100
AcDbDictionary
280
     1
281
     1
  3
ACAD_XREC_ROUNDTRIP
360
1A7
  0
DICTIONARY
  5
1BA
330
3B
100
AcDbDictionary
280
     1
281
     1
  3
ACAD_XREC_ROUNDTRIP
360
1BB
  0
DICTIONARY
  5
1B4
330
38
100
AcDbDictionary
280
     1
281
     1
  3
ACAD_XREC_ROUNDTRIP
360
1B5
  0
DICTIONARY
  5
1BC
330
3C
100
AcDbDictionary
280
     1
281
     1
  3
ACAD_XREC_ROUNDTRIP
360
1BD
  0
DICTIONARY
  5
1AA
330
33
100
AcDbDictionary
280
     1
281
     1
  3
ACAD_XREC_ROUNDTRIP
360
1AB
  0
DICTIONARY
  5
1C8
330
42
100
AcDbDictionary
280
     1
281
     1
  3
ACAD_XREC_ROUNDTRIP
360
1C9
  0
DICTIONARY
  5
1C6
330
41
100
AcDbDictionary
280
     1
281
     1
  3
ACAD_XREC_ROUNDTRIP
360
1C7
  0
DICTIONARY
  5
1C0
330
3E
100
AcDbDictionary
280
     1
281
     1
  3
ACAD_XREC_ROUNDTRIP
360
1C1
  0
DICTIONARY
  5
1C2
330
3F
100
AcDbDictionary
280
     1
281
     1
  3
ACAD_XREC_ROUNDTRIP
360
1C3
  0
DICTIONARY
  5
1B2
330
37
100
AcDbDictionary
280
     1
281
     1
  3
ACAD_XREC_ROUNDTRIP
360
1B3
  0
DICTIONARY
  5
1A4
330
30
100
AcDbDictionary
280
     1
281
     1
  3
ACAD_XREC_ROUNDTRIP
360
1A5
  0
DICTIONARY
  5
1C4
330
40
100
AcDbDictionary
280
     1
281
     1
  3
ACAD_XREC_ROUNDTRIP
360
1C5
  0
XRECORD
  5
1CD
102
{ACAD_REACTORS
330
1CC
102
}
330
1CC
100
AcDbXrecord
280
     1
102
MATERIAL
148
0.0
149
0.0
149
0.0
 93
        0
 94
      127
282
     0
 72
     1
 77
     1
171
     1
175
     1
179
     1
273
     0
  0
XRECORD
  5
1CB
102
{ACAD_REACTORS
330
1CA
102
}
330
1CA
100
AcDbXrecord
280
     1
102
MATERIAL
148
0.0
149
0.0
149
0.0
 93
        0
 94
      127
282
     0
 72
     1
 77
     1
171
     1
175
     1
179
     1
273
     0
  0
XRECORD
  5
1CF
102
{ACAD_REACTORS
330
1CE
102
}
330
1CE
100
AcDbXrecord
280
     1
102
MATERIAL
148
0.0
149
0.0
149
0.0
 93
        0
 94
      127
282
     0
 72
     1
 77
     1
171
     1
175
     1
179
     1
273
     0
  0
XRECORD
  5
1D5
102
{ACAD_REACTORS
330
1D4
102
}
330
1D4
100
AcDbXrecord
280
     1
102
ACAD_ROUNDTRIP_2010_MLEADER_STYLE
  0
CELLSTYLEMAP
  5
1D2
102
{ACAD_REACTORS
330
1D0
102
}
330
1D0
100
AcDbCellStyleMap
 90
        3
300
CELLSTYLE
  1
TABLEFORMAT_BEGIN
 90
        5
170
     1
 91
        0
 92
    32768
 62
   257
 93
        1
300
CONTENTFORMAT
  1
CONTENTFORMAT_BEGIN
 90
        0
 91
        0
 92
        4
 93
        0
300

 40
0.0
140
1.0
 94
        5
 62
     0
340
11
144
0.25
309
CONTENTFORMAT_END
171
     1
301
MARGIN
  1
CELLMARGIN_BEGIN
 40
0.06
 40
0.06
 40
0.06
 40
0.06
 40
0.06
 40
0.06
309
CELLMARGIN_END
 94
        6
 95
        1
302
GRIDFORMAT
  1
GRIDFORMAT_BEGIN
 90
        0
 91
        1
 62
     0
 92
       -2
340
14
 93
        0
 40
0.045
309
GRIDFORMAT_END
 95
        2
302
GRIDFORMAT
  1
GRIDFORMAT_BEGIN
 90
        0
 91
        1
 62
     0
 92
       -2
340
14
 93
        0
 40
0.045
309
GRIDFORMAT_END
 95
        4
302
GRIDFORMAT
  1
GRIDFORMAT_BEGIN
 90
        0
 91
        1
 62
     0
 92
       -2
340
14
 93
        0
 40
0.045
309
GRIDFORMAT_END
 95
        8
302
GRIDFORMAT
  1
GRIDFORMAT_BEGIN
 90
        0
 91
        1
 62
     0
 92
       -2
340
14
 93
        0
 40
0.045
309
GRIDFORMAT_END
 95
       16
302
GRIDFORMAT
  1
GRIDFORMAT_BEGIN
 90
        0
 91
        1
 62
     0
 92
       -2
340
14
 93
        0
 40
0.045
309
GRIDFORMAT_END
 95
       32
302
GRIDFORMAT
  1
GRIDFORMAT_BEGIN
 90
        0
 91
        1
 62
     0
 92
       -2
340
14
 93
        0
 40
0.045
309
GRIDFORMAT_END
309
TABLEFORMAT_END
  1
CELLSTYLE_BEGIN
 90
        1
 91
        1
300
_TITLE
309
CELLSTYLE_END
300
CELLSTYLE
  1
TABLEFORMAT_BEGIN
 90
        5
170
     1
 91
        0
 92
        0
 62
   257
 93
        1
300
CONTENTFORMAT
  1
CONTENTFORMAT_BEGIN
 90
        0
 91
        0
 92
        4
 93
        0
300

 40
0.0
140
1.0
 94
        5
 62
     0
340
11
144
0.18
309
CONTENTFORMAT_END
171
     1
301
MARGIN
  1
CELLMARGIN_BEGIN
 40
0.06
 40
0.06
 40
0.06
 40
0.06
 40
0.06
 40
0.06
309
CELLMARGIN_END
 94
        6
 95
        1
302
GRIDFORMAT
  1
GRIDFORMAT_BEGIN
 90
        0
 91
        1
 62
     0
 92
       -2
340
14
 93
        0
 40
0.045
309
GRIDFORMAT_END
 95
        2
302
GRIDFORMAT
  1
GRIDFORMAT_BEGIN
 90
        0
 91
        1
 62
     0
 92
       -2
340
14
 93
        0
 40
0.045
309
GRIDFORMAT_END
 95
        4
302
GRIDFORMAT
  1
GRIDFORMAT_BEGIN
 90
        0
 91
        1
 62
     0
 92
       -2
340
14
 93
        0
 40
0.045
309
GRIDFORMAT_END
 95
        8
302
GRIDFORMAT
  1
GRIDFORMAT_BEGIN
 90
        0
 91
        1
 62
     0
 92
       -2
340
14
 93
        0
 40
0.045
309
GRIDFORMAT_END
 95
       16
302
GRIDFORMAT
  1
GRIDFORMAT_BEGIN
 90
        0
 91
        1
 62
     0
 92
       -2
340
14
 93
        0
 40
0.045
309
GRIDFORMAT_END
 95
       32
302
GRIDFORMAT
  1
GRIDFORMAT_BEGIN
 90
        0
 91
        1
 62
     0
 92
       -2
340
14
 93
        0
 40
0.045
309
GRIDFORMAT_END
309
TABLEFORMAT_END
  1
CELLSTYLE_BEGIN
 90
        2
 91
        1
300
_HEADER
309
CELLSTYLE_END
300
CELLSTYLE
  1
TABLEFORMAT_BEGIN
 90
        5
170
     1
 91
        0
 92
        0
 62
   257
 93
        1
300
CONTENTFORMAT
  1
CONTENTFORMAT_BEGIN
 90
        0
 91
        0
 92
        4
 93
        0
300

 40
0.0
140
1.0
 94
        2
 62
     0
340
11
144
0.18
309
CONTENTFORMAT_END
171
     1
301
MARGIN
  1
CELLMARGIN_BEGIN
 40
0.06
 40
0.06
 40
0.06
 40
0.06
 40
0.06
 40
0.06
309
CELLMARGIN_END
 94
        6
 95
        1
302
GRIDFORMAT
  1
GRIDFORMAT_BEGIN
 90
        0
 91
        1
 62
     0
 92
       -2
340
14
 93
        0
 40
0.045
309
GRIDFORMAT_END
 95
        2
302
GRIDFORMAT
  1
GRIDFORMAT_BEGIN
 90
        0
 91
        1
 62
     0
 92
       -2
340
14
 93
        0
 40
0.045
309
GRIDFORMAT_END
 95
        4
302
GRIDFORMAT
  1
GRIDFORMAT_BEGIN
 90
        0
 91
        1
 62
     0
 92
       -2
340
14
 93
        0
 40
0.045
309
GRIDFORMAT_END
 95
        8
302
GRIDFORMAT
  1
GRIDFORMAT_BEGIN
 90
        0
 91
        1
 62
     0
 92
       -2
340
14
 93
        0
 40
0.045
309
GRIDFORMAT_END
 95
       16
302
GRIDFORMAT
  1
GRIDFORMAT_BEGIN
 90
        0
 91
        1
 62
     0
 92
       -2
340
14
 93
        0
 40
0.045
309
GRIDFORMAT_END
 95
       32
302
GRIDFORMAT
  1
GRIDFORMAT_BEGIN
 90
        0
 91
        1
 62
     0
 92
       -2
340
14
 93
        0
 40
0.045
309
GRIDFORMAT_END
309
TABLEFORMAT_END
  1
CELLSTYLE_BEGIN
 90
        3
 91
        2
300
_DATA
309
CELLSTYLE_END
  0
XRECORD
  5
1D1
102
{ACAD_REACTORS
330
1D0
102
}
330
1D0
100
AcDbXrecord
280
     1
102
ACAD_ROUNDTRIP_PRE2007_TABLESTYLE
 90
        4
 91
        0
  1

 92
        4
 93
        0
  2

 94
        4
 95
        0
  3

  0
XRECORD
  5
1A3
102
{ACAD_REACTORS
330
1A2
102
}
330
1A2
100
AcDbXrecord
280
     1
102
RTVSPropertyOp0
 70
     1
102
RTVSPropertyOp1
 70
     1
102
RTVSPropertyOp2
 70
     1
102
RTVSPropertyOp3
 70
     1
102
RTVSPropertyOp4
 70
     1
102
RTVSPropertyOp5
 70
     1
102
RTVSPropertyOp6
 70
     1
102
RTVSPropertyOp7
 70
     1
102
RTVSPropertyOp8
 70
     1
102
RTVSPropertyOp9
 70
     1
102
RTVSPropertyOp10
 70
     1
102
RTVSPropertyOp11
 70
     1
102
RTVSPropertyOp12
 70
     1
102
RTVSPropertyOp13
 70
     1
102
RTVSPropertyOp14
 70
     1
102
RTVSPropertyOp15
 70
     1
102
RTVSPropertyOp16
 70
     1
102
RTVSPropertyOp17
 70
     1
102
RTVSPropertyOp18
 70
     1
102
RTVSPropertyOp19
 70
     1
102
RTVSPropertyOp20
 70
     1
102
RTVSPropertyOp21
 70
     1
102
RTVSPropertyOp22
 70
     1
102
RTVSPropertyOp23
 70
     1
102
RTVSPropertyOp24
 70
     1
102
RTVSPropertyOp25
 70
     1
102
RTVSPropertyOp26
 70
     1
102
RTVSPropertyOp27
 70
     1
102
RTVSPropertyOp28
 70
     1
102
RTVSPropertyOp29
 70
     1
102
RTVSPropertyOp30
 70
     1
102
RTVSPropertyOp31
 70
     1
102
RTVSPropertyOp32
 70
     1
102
RTVSPropertyOp33
 70
     1
102
RTVSPropertyOp34
 70
     1
102
RTVSPropertyOp35
 70
     1
102
RTVSPropertyOp36
 70
     1
102
RTVSPropertyOp37
 70
     1
102
RTVSPropertyOp38
 70
     1
102
RTVSPropertyOp39
 70
     1
102
RTVSPropertyOp40
 70
     1
102
RTVSPropertyOp41
 70
     1
102
RTVSPropertyOp42
 70
     1
102
RTVSPropertyOp43
 70
     1
102
RTVSPropertyOp44
 70
     1
102
RTVSPropertyOp45
 70
     1
102
RTVSPropertyOp46
 70
     1
102
RTVSPropertyOp47
 70
     1
102
RTVSPropertyOp48
 70
     1
102
RTVSPropertyOp49
 70
     1
102
RTVSPropertyOp50
 70
     1
102
RTVSPropertyOp51
 70
     0
102
RTVSPropertyOp52
 70
     0
102
RTVSPropertyOp53
 70
     1
102
RTVSPropertyOp54
 70
     1
102
RTVSPropertyOp55
 70
     1
102
RTVSPropertyOp56
 70
     1
102
RTVSPropertyOp57
 70
     1
102
RTVSPost2010Prop28
280
     1
102
RTVSPost2010PropOp28
 70
     1
102
RTVSPost2010Prop29
280
     1
102
RTVSPost2010PropOp29
 70
     1
102
RTVSPost2010Prop30
280
     0
102
RTVSPost2010PropOp30
 70
     1
102
RTVSPost2010Prop31
280
     0
102
RTVSPost2010PropOp31
 70
     1
102
RTVSPost2010Prop32
280
     0
102
RTVSPost2010PropOp32
 70
     1
102
RTVSPost2010Prop33
280
     0
102
RTVSPost2010PropOp33
 70
     1
102
RTVSPost2010Prop34
280
     0
102
RTVSPost2010PropOp34
 70
     1
102
RTVSPost2010Prop35
280
     0
102
RTVSPost2010PropOp35
 70
     1
102
RTVSPost2010Prop36
280
     0
102
RTVSPost2010PropOp36
 70
     1
102
RTVSPost2010Prop37
 90
       50
102
RTVSPost2010PropOp37
 70
     1
102
RTVSPost2010Prop38
140
0.0
102
RTVSPost2010PropOp38
 70
     1
102
RTVSPost2010Prop39
140
1.0
102
RTVSPost2010PropOp39
 70
     1
102
RTVSPost2010Prop40
 90
        0
102
RTVSPost2010PropOp40
 70
     1
102
RTVSPost2010Prop41ColorIndex
 90
       18
102
RTVSPost2010Prop41ColorRGB
 90
        0
102
RTVSPost2010PropOp41
 70
     1
102
RTVSPost2010Prop42
 90
       50
102
RTVSPost2010PropOp42
 70
     1
102
RTVSPost2010Prop43
 90
        3
102
RTVSPost2010PropOp43
 70
     1
102
RTVSPost2010Prop44ColorIndex
 90
        5
102
RTVSPost2010Prop44ColorRGB
 90
      255
102
RTVSPost2010PropOp44
 70
     1
102
RTVSPost2010Prop45
280
     0
102
RTVSPost2010PropOp45
 70
     1
102
RTVSPost2010Prop46
 90
       50
102
RTVSPost2010PropOp46
 70
     1
102
RTVSPost2010Prop47
 90
       50
102
RTVSPost2010PropOp47
 70
     1
102
RTVSPost2010Prop48
 90
       50
102
RTVSPost2010PropOp48
 70
     1
102
RTVSPost2010Prop49
280
     0
102
RTVSPost2010PropOp49
 70
     1
102
RTVSPost2010Prop50
 90
       50
102
RTVSPost2010PropOp50
 70
     1
102
RTVSPost2010Prop51ColorIndex
 90
      256
102
RTVSPost2010Prop51ColorRGB
 90
-16777216
102
RTVSPost2010PropOp51
 70
     0
102
RTVSPost2010Prop52
140
1.0
102
RTVSPost2010PropOp52
 70
     0
102
RTVSPost2010Prop53
 90
        2
102
RTVSPost2010PropOp53
 70
     1
102
RTVSPost2010Prop54
  1
strokes_ogs.tif
102
RTVSPost2010PropOp54
 70
     1
102
RTVSPost2010Prop55
280
     0
102
RTVSPost2010PropOp55
 70
     1
102
RTVSPost2010Prop56
140
1.0
102
RTVSPost2010PropOp56
 70
     1
102
RTVSPost2010Prop57
140
1.0
102
RTVSPost2010PropOp57
 70
     1
  0
XRECORD
  5
1A9
102
{ACAD_REACTORS
330
1A8
102
}
330
1A8
100
AcDbXrecord
280
     1
102
RTVSPropertyOp0
 70
     1
102
RTVSPropertyOp1
 70
     1
102
RTVSPropertyOp2
 70
     1
102
RTVSPropertyOp3
 70
     1
102
RTVSPropertyOp4
 70
     1
102
RTVSPropertyOp5
 70
     1
102
RTVSPropertyOp6
 70
     1
102
RTVSPropertyOp7
 70
     1
102
RTVSPropertyOp8
 70
     1
102
RTVSPropertyOp9
 70
     1
102
RTVSPropertyOp10
 70
     1
102
RTVSPropertyOp11
 70
     1
102
RTVSPropertyOp12
 70
     1
102
RTVSPropertyOp13
 70
     1
102
RTVSPropertyOp14
 70
     1
102
RTVSPropertyOp15
 70
     1
102
RTVSPropertyOp16
 70
     1
102
RTVSPropertyOp17
 70
     1
102
RTVSPropertyOp18
 70
     1
102
RTVSPropertyOp19
 70
     1
102
RTVSPropertyOp20
 70
     1
102
RTVSPropertyOp21
 70
     1
102
RTVSPropertyOp22
 70
     1
102
RTVSPropertyOp23
 70
     1
102
RTVSPropertyOp24
 70
     1
102
RTVSPropertyOp25
 70
     1
102
RTVSPropertyOp26
 70
     1
102
RTVSPropertyOp27
 70
     1
102
RTVSPropertyOp28
 70
     1
102
RTVSPropertyOp29
 70
     1
102
RTVSPropertyOp30
 70
     1
102
RTVSPropertyOp31
 70
     1
102
RTVSPropertyOp32
 70
     1
102
RTVSPropertyOp33
 70
     1
102
RTVSPropertyOp34
 70
     1
102
RTVSPropertyOp35
 70
     1
102
RTVSPropertyOp36
 70
     1
102
RTVSPropertyOp37
 70
     1
102
RTVSPropertyOp38
 70
     1
102
RTVSPropertyOp39
 70
     1
102
RTVSPropertyOp40
 70
     1
102
RTVSPropertyOp41
 70
     1
102
RTVSPropertyOp42
 70
     1
102
RTVSPropertyOp43
 70
     1
102
RTVSPropertyOp44
 70
     1
102
RTVSPropertyOp45
 70
     1
102
RTVSPropertyOp46
 70
     1
102
RTVSPropertyOp47
 70
     1
102
RTVSPropertyOp48
 70
     1
102
RTVSPropertyOp49
 70
     1
102
RTVSPropertyOp50
 70
     1
102
RTVSPropertyOp51
 70
     0
102
RTVSPropertyOp52
 70
     0
102
RTVSPropertyOp53
 70
     1
102
RTVSPropertyOp54
 70
     1
102
RTVSPropertyOp55
 70
     1
102
RTVSPropertyOp56
 70
     1
102
RTVSPropertyOp57
 70
     1
102
RTVSPost2010Prop28
280
     0
102
RTVSPost2010PropOp28
 70
     1
102
RTVSPost2010Prop29
280
     1
102
RTVSPost2010PropOp29
 70
     1
102
RTVSPost2010Prop30
280
     1
102
RTVSPost2010PropOp30
 70
     1
102
RTVSPost2010Prop31
280
     0
102
RTVSPost2010PropOp31
 70
     1
102
RTVSPost2010Prop32
280
     0
102
RTVSPost2010PropOp32
 70
     1
102
RTVSPost2010Prop33
280
     0
102
RTVSPost2010PropOp33
 70
     1
102
RTVSPost2010Prop34
280
     0
102
RTVSPost2010PropOp34
 70
     1
102
RTVSPost2010Prop35
280
     0
102
RTVSPost2010PropOp35
 70
     1
102
RTVSPost2010Prop36
280
     0
102
RTVSPost2010PropOp36
 70
     1
102
RTVSPost2010Prop37
 90
       50
102
RTVSPost2010PropOp37
 70
     1
102
RTVSPost2010Prop38
140
0.0
102
RTVSPost2010PropOp38
 70
     1
102
RTVSPost2010Prop39
140
1.0
102
RTVSPost2010PropOp39
 70
     1
102
RTVSPost2010Prop40
 90
        0
102
RTVSPost2010PropOp40
 70
     1
102
RTVSPost2010Prop41ColorIndex
 90
       18
102
RTVSPost2010Prop41ColorRGB
 90
        0
102
RTVSPost2010PropOp41
 70
     1
102
RTVSPost2010Prop42
 90
       50
102
RTVSPost2010PropOp42
 70
     1
102
RTVSPost2010Prop43
 90
        3
102
RTVSPost2010PropOp43
 70
     1
102
RTVSPost2010Prop44ColorIndex
 90
        5
102
RTVSPost2010Prop44ColorRGB
 90
      255
102
RTVSPost2010PropOp44
 70
     1
102
RTVSPost2010Prop45
280
     0
102
RTVSPost2010PropOp45
 70
     1
102
RTVSPost2010Prop46
 90
       50
102
RTVSPost2010PropOp46
 70
     1
102
RTVSPost2010Prop47
 90
       50
102
RTVSPost2010PropOp47
 70
     1
102
RTVSPost2010Prop48
 90
       50
102
RTVSPost2010PropOp48
 70
     1
102
RTVSPost2010Prop49
280
     0
102
RTVSPost2010PropOp49
 70
     1
102
RTVSPost2010Prop50
 90
       50
102
RTVSPost2010PropOp50
 70
     1
102
RTVSPost2010Prop51ColorIndex
 90
      256
102
RTVSPost2010Prop51ColorRGB
 90
-16777216
102
RTVSPost2010PropOp51
 70
     0
102
RTVSPost2010Prop52
140
1.0
102
RTVSPost2010PropOp52
 70
     0
102
RTVSPost2010Prop53
 90
        2
102
RTVSPost2010PropOp53
 70
     1
102
RTVSPost2010Prop54
  1
strokes_ogs.tif
102
RTVSPost2010PropOp54
 70
     1
102
RTVSPost2010Prop55
280
     0
102
RTVSPost2010PropOp55
 70
     1
102
RTVSPost2010Prop56
140
1.0
102
RTVSPost2010PropOp56
 70
     1
102
RTVSPost2010Prop57
140
1.0
102
RTVSPost2010PropOp57
 70
     1
  0
XRECORD
  5
1B1
102
{ACAD_REACTORS
330
1B0
102
}
330
1B0
100
AcDbXrecord
280
     1
102
RTVSPropertyOp0
 70
     1
102
RTVSPropertyOp1
 70
     1
102
RTVSPropertyOp2
 70
     1
102
RTVSPropertyOp3
 70
     1
102
RTVSPropertyOp4
 70
     1
102
RTVSPropertyOp5
 70
     1
102
RTVSPropertyOp6
 70
     1
102
RTVSPropertyOp7
 70
     1
102
RTVSPropertyOp8
 70
     1
102
RTVSPropertyOp9
 70
     1
102
RTVSPropertyOp10
 70
     1
102
RTVSPropertyOp11
 70
     1
102
RTVSPropertyOp12
 70
     1
102
RTVSPropertyOp13
 70
     1
102
RTVSPropertyOp14
 70
     1
102
RTVSPropertyOp15
 70
     1
102
RTVSPropertyOp16
 70
     1
102
RTVSPropertyOp17
 70
     1
102
RTVSPropertyOp18
 70
     1
102
RTVSPropertyOp19
 70
     1
102
RTVSPropertyOp20
 70
     1
102
RTVSPropertyOp21
 70
     1
102
RTVSPropertyOp22
 70
     1
102
RTVSPropertyOp23
 70
     1
102
RTVSPropertyOp24
 70
     1
102
RTVSPropertyOp25
 70
     1
102
RTVSPropertyOp26
 70
     1
102
RTVSPropertyOp27
 70
     1
102
RTVSPropertyOp28
 70
     1
102
RTVSPropertyOp29
 70
     1
102
RTVSPropertyOp30
 70
     1
102
RTVSPropertyOp31
 70
     1
102
RTVSPropertyOp32
 70
     1
102
RTVSPropertyOp33
 70
     1
102
RTVSPropertyOp34
 70
     1
102
RTVSPropertyOp35
 70
     1
102
RTVSPropertyOp36
 70
     1
102
RTVSPropertyOp37
 70
     1
102
RTVSPropertyOp38
 70
     1
102
RTVSPropertyOp39
 70
     1
102
RTVSPropertyOp40
 70
     1
102
RTVSPropertyOp41
 70
     1
102
RTVSPropertyOp42
 70
     1
102
RTVSPropertyOp43
 70
     1
102
RTVSPropertyOp44
 70
     1
102
RTVSPropertyOp45
 70
     1
102
RTVSPropertyOp46
 70
     1
102
RTVSPropertyOp47
 70
     1
102
RTVSPropertyOp48
 70
     1
102
RTVSPropertyOp49
 70
     1
102
RTVSPropertyOp50
 70
     1
102
RTVSPropertyOp51
 70
     0
102
RTVSPropertyOp52
 70
     0
102
RTVSPropertyOp53
 70
     1
102
RTVSPropertyOp54
 70
     1
102
RTVSPropertyOp55
 70
     1
102
RTVSPropertyOp56
 70
     1
102
RTVSPropertyOp57
 70
     1
102
RTVSPost2010Prop28
280
     0
102
RTVSPost2010PropOp28
 70
     1
102
RTVSPost2010Prop29
280
     1
102
RTVSPost2010PropOp29
 70
     1
102
RTVSPost2010Prop30
280
     1
102
RTVSPost2010PropOp30
 70
     1
102
RTVSPost2010Prop31
280
     0
102
RTVSPost2010PropOp31
 70
     1
102
RTVSPost2010Prop32
280
     0
102
RTVSPost2010PropOp32
 70
     1
102
RTVSPost2010Prop33
280
     0
102
RTVSPost2010PropOp33
 70
     1
102
RTVSPost2010Prop34
280
     0
102
RTVSPost2010PropOp34
 70
     1
102
RTVSPost2010Prop35
280
     0
102
RTVSPost2010PropOp35
 70
     1
102
RTVSPost2010Prop36
280
     0
102
RTVSPost2010PropOp36
 70
     1
102
RTVSPost2010Prop37
 90
       50
102
RTVSPost2010PropOp37
 70
     1
102
RTVSPost2010Prop38
140
0.0
102
RTVSPost2010PropOp38
 70
     1
102
RTVSPost2010Prop39
140
1.0
102
RTVSPost2010PropOp39
 70
     1
102
RTVSPost2010Prop40
 90
        0
102
RTVSPost2010PropOp40
 70
     1
102
RTVSPost2010Prop41ColorIndex
 90
       18
102
RTVSPost2010Prop41ColorRGB
 90
        0
102
RTVSPost2010PropOp41
 70
     1
102
RTVSPost2010Prop42
 90
       50
102
RTVSPost2010PropOp42
 70
     1
102
RTVSPost2010Prop43
 90
        3
102
RTVSPost2010PropOp43
 70
     1
102
RTVSPost2010Prop44ColorIndex
 90
        5
102
RTVSPost2010Prop44ColorRGB
 90
      255
102
RTVSPost2010PropOp44
 70
     1
102
RTVSPost2010Prop45
280
     0
102
RTVSPost2010PropOp45
 70
     1
102
RTVSPost2010Prop46
 90
       50
102
RTVSPost2010PropOp46
 70
     1
102
RTVSPost2010Prop47
 90
       50
102
RTVSPost2010PropOp47
 70
     1
102
RTVSPost2010Prop48
 90
       50
102
RTVSPost2010PropOp48
 70
     1
102
RTVSPost2010Prop49
280
     0
102
RTVSPost2010PropOp49
 70
     1
102
RTVSPost2010Prop50
 90
       50
102
RTVSPost2010PropOp50
 70
     1
102
RTVSPost2010Prop51ColorIndex
 90
      256
102
RTVSPost2010Prop51ColorRGB
 90
-16777216
102
RTVSPost2010PropOp51
 70
     0
102
RTVSPost2010Prop52
140
1.0
102
RTVSPost2010PropOp52
 70
     0
102
RTVSPost2010Prop53
 90
        2
102
RTVSPost2010PropOp53
 70
     1
102
RTVSPost2010Prop54
  1
strokes_ogs.tif
102
RTVSPost2010PropOp54
 70
     1
102
RTVSPost2010Prop55
280
     0
102
RTVSPost2010PropOp55
 70
     1
102
RTVSPost2010Prop56
140
1.0
102
RTVSPost2010PropOp56
 70
     1
102
RTVSPost2010Prop57
140
1.0
102
RTVSPost2010PropOp57
 70
     1
  0
XRECORD
  5
1B9
102
{ACAD_REACTORS
330
1B8
102
}
330
1B8
100
AcDbXrecord
280
     1
102
RTVSPropertyOp0
 70
     1
102
RTVSPropertyOp1
 70
     1
102
RTVSPropertyOp2
 70
     1
102
RTVSPropertyOp3
 70
     1
102
RTVSPropertyOp4
 70
     1
102
RTVSPropertyOp5
 70
     1
102
RTVSPropertyOp6
 70
     1
102
RTVSPropertyOp7
 70
     1
102
RTVSPropertyOp8
 70
     1
102
RTVSPropertyOp9
 70
     1
102
RTVSPropertyOp10
 70
     1
102
RTVSPropertyOp11
 70
     1
102
RTVSPropertyOp12
 70
     1
102
RTVSPropertyOp13
 70
     1
102
RTVSPropertyOp14
 70
     1
102
RTVSPropertyOp15
 70
     1
102
RTVSPropertyOp16
 70
     1
102
RTVSPropertyOp17
 70
     1
102
RTVSPropertyOp18
 70
     1
102
RTVSPropertyOp19
 70
     1
102
RTVSPropertyOp20
 70
     1
102
RTVSPropertyOp21
 70
     1
102
RTVSPropertyOp22
 70
     1
102
RTVSPropertyOp23
 70
     1
102
RTVSPropertyOp24
 70
     1
102
RTVSPropertyOp25
 70
     1
102
RTVSPropertyOp26
 70
     1
102
RTVSPropertyOp27
 70
     1
102
RTVSPropertyOp28
 70
     1
102
RTVSPropertyOp29
 70
     1
102
RTVSPropertyOp30
 70
     1
102
RTVSPropertyOp31
 70
     1
102
RTVSPropertyOp32
 70
     1
102
RTVSPropertyOp33
 70
     1
102
RTVSPropertyOp34
 70
     1
102
RTVSPropertyOp35
 70
     1
102
RTVSPropertyOp36
 70
     1
102
RTVSPropertyOp37
 70
     1
102
RTVSPropertyOp38
 70
     1
102
RTVSPropertyOp39
 70
     1
102
RTVSPropertyOp40
 70
     1
102
RTVSPropertyOp41
 70
     1
102
RTVSPropertyOp42
 70
     1
102
RTVSPropertyOp43
 70
     1
102
RTVSPropertyOp44
 70
     1
102
RTVSPropertyOp45
 70
     1
102
RTVSPropertyOp46
 70
     1
102
RTVSPropertyOp47
 70
     1
102
RTVSPropertyOp48
 70
     1
102
RTVSPropertyOp49
 70
     1
102
RTVSPropertyOp50
 70
     1
102
RTVSPropertyOp51
 70
     0
102
RTVSPropertyOp52
 70
     0
102
RTVSPropertyOp53
 70
     1
102
RTVSPropertyOp54
 70
     1
102
RTVSPropertyOp55
 70
     1
102
RTVSPropertyOp56
 70
     1
102
RTVSPropertyOp57
 70
     1
102
RTVSPost2010Prop28
280
     0
102
RTVSPost2010PropOp28
 70
     1
102
RTVSPost2010Prop29
280
     1
102
RTVSPost2010PropOp29
 70
     1
102
RTVSPost2010Prop30
280
     1
102
RTVSPost2010PropOp30
 70
     1
102
RTVSPost2010Prop31
280
     0
102
RTVSPost2010PropOp31
 70
     1
102
RTVSPost2010Prop32
280
     0
102
RTVSPost2010PropOp32
 70
     1
102
RTVSPost2010Prop33
280
     0
102
RTVSPost2010PropOp33
 70
     1
102
RTVSPost2010Prop34
280
     0
102
RTVSPost2010PropOp34
 70
     1
102
RTVSPost2010Prop35
280
     0
102
RTVSPost2010PropOp35
 70
     1
102
RTVSPost2010Prop36
280
     0
102
RTVSPost2010PropOp36
 70
     1
102
RTVSPost2010Prop37
 90
       50
102
RTVSPost2010PropOp37
 70
     1
102
RTVSPost2010Prop38
140
0.0
102
RTVSPost2010PropOp38
 70
     1
102
RTVSPost2010Prop39
140
1.0
102
RTVSPost2010PropOp39
 70
     1
102
RTVSPost2010Prop40
 90
        0
102
RTVSPost2010PropOp40
 70
     1
102
RTVSPost2010Prop41ColorIndex
 90
       18
102
RTVSPost2010Prop41ColorRGB
 90
        0
102
RTVSPost2010PropOp41
 70
     1
102
RTVSPost2010Prop42
 90
       50
102
RTVSPost2010PropOp42
 70
     1
102
RTVSPost2010Prop43
 90
        3
102
RTVSPost2010PropOp43
 70
     1
102
RTVSPost2010Prop44ColorIndex
 90
        5
102
RTVSPost2010Prop44ColorRGB
 90
      255
102
RTVSPost2010PropOp44
 70
     1
102
RTVSPost2010Prop45
280
     0
102
RTVSPost2010PropOp45
 70
     1
102
RTVSPost2010Prop46
 90
       50
102
RTVSPost2010PropOp46
 70
     1
102
RTVSPost2010Prop47
 90
       50
102
RTVSPost2010PropOp47
 70
     1
102
RTVSPost2010Prop48
 90
       50
102
RTVSPost2010PropOp48
 70
     1
102
RTVSPost2010Prop49
280
     0
102
RTVSPost2010PropOp49
 70
     1
102
RTVSPost2010Prop50
 90
       50
102
RTVSPost2010PropOp50
 70
     1
102
RTVSPost2010Prop51ColorIndex
 90
      256
102
RTVSPost2010Prop51ColorRGB
 90
-16777216
102
RTVSPost2010PropOp51
 70
     0
102
RTVSPost2010Prop52
140
1.0
102
RTVSPost2010PropOp52
 70
     0
102
RTVSPost2010Prop53
 90
        2
102
RTVSPost2010PropOp53
 70
     1
102
RTVSPost2010Prop54
  1
strokes_ogs.tif
102
RTVSPost2010PropOp54
 70
     1
102
RTVSPost2010Prop55
280
     0
102
RTVSPost2010PropOp55
 70
     1
102
RTVSPost2010Prop56
140
1.0
102
RTVSPost2010PropOp56
 70
     1
102
RTVSPost2010Prop57
140
1.0
102
RTVSPost2010PropOp57
 70
     1
  0
XRECORD
  5
1AD
102
{ACAD_REACTORS
330
1AC
102
}
330
1AC
100
AcDbXrecord
280
     1
102
RTVSPropertyOp0
 70
     1
102
RTVSPropertyOp1
 70
     1
102
RTVSPropertyOp2
 70
     1
102
RTVSPropertyOp3
 70
     1
102
RTVSPropertyOp4
 70
     1
102
RTVSPropertyOp5
 70
     1
102
RTVSPropertyOp6
 70
     1
102
RTVSPropertyOp7
 70
     1
102
RTVSPropertyOp8
 70
     1
102
RTVSPropertyOp9
 70
     1
102
RTVSPropertyOp10
 70
     1
102
RTVSPropertyOp11
 70
     1
102
RTVSPropertyOp12
 70
     1
102
RTVSPropertyOp13
 70
     1
102
RTVSPropertyOp14
 70
     1
102
RTVSPropertyOp15
 70
     1
102
RTVSPropertyOp16
 70
     1
102
RTVSPropertyOp17
 70
     1
102
RTVSPropertyOp18
 70
     1
102
RTVSPropertyOp19
 70
     1
102
RTVSPropertyOp20
 70
     1
102
RTVSPropertyOp21
 70
     1
102
RTVSPropertyOp22
 70
     1
102
RTVSPropertyOp23
 70
     1
102
RTVSPropertyOp24
 70
     1
102
RTVSPropertyOp25
 70
     1
102
RTVSPropertyOp26
 70
     1
102
RTVSPropertyOp27
 70
     1
102
RTVSPropertyOp28
 70
     1
102
RTVSPropertyOp29
 70
     1
102
RTVSPropertyOp30
 70
     1
102
RTVSPropertyOp31
 70
     1
102
RTVSPropertyOp32
 70
     1
102
RTVSPropertyOp33
 70
     1
102
RTVSPropertyOp34
 70
     1
102
RTVSPropertyOp35
 70
     1
102
RTVSPropertyOp36
 70
     1
102
RTVSPropertyOp37
 70
     1
102
RTVSPropertyOp38
 70
     1
102
RTVSPropertyOp39
 70
     1
102
RTVSPropertyOp40
 70
     1
102
RTVSPropertyOp41
 70
     1
102
RTVSPropertyOp42
 70
     1
102
RTVSPropertyOp43
 70
     1
102
RTVSPropertyOp44
 70
     1
102
RTVSPropertyOp45
 70
     1
102
RTVSPropertyOp46
 70
     1
102
RTVSPropertyOp47
 70
     1
102
RTVSPropertyOp48
 70
     1
102
RTVSPropertyOp49
 70
     1
102
RTVSPropertyOp50
 70
     1
102
RTVSPropertyOp51
 70
     0
102
RTVSPropertyOp52
 70
     0
102
RTVSPropertyOp53
 70
     1
102
RTVSPropertyOp54
 70
     1
102
RTVSPropertyOp55
 70
     1
102
RTVSPropertyOp56
 70
     1
102
RTVSPropertyOp57
 70
     1
102
RTVSPost2010Prop28
280
     0
102
RTVSPost2010PropOp28
 70
     1
102
RTVSPost2010Prop29
280
     1
102
RTVSPost2010PropOp29
 70
     1
102
RTVSPost2010Prop30
280
     1
102
RTVSPost2010PropOp30
 70
     1
102
RTVSPost2010Prop31
280
     0
102
RTVSPost2010PropOp31
 70
     1
102
RTVSPost2010Prop32
280
     0
102
RTVSPost2010PropOp32
 70
     1
102
RTVSPost2010Prop33
280
     0
102
RTVSPost2010PropOp33
 70
     1
102
RTVSPost2010Prop34
280
     0
102
RTVSPost2010PropOp34
 70
     1
102
RTVSPost2010Prop35
280
     0
102
RTVSPost2010PropOp35
 70
     1
102
RTVSPost2010Prop36
280
     0
102
RTVSPost2010PropOp36
 70
     1
102
RTVSPost2010Prop37
 90
       50
102
RTVSPost2010PropOp37
 70
     1
102
RTVSPost2010Prop38
140
0.0
102
RTVSPost2010PropOp38
 70
     1
102
RTVSPost2010Prop39
140
1.0
102
RTVSPost2010PropOp39
 70
     1
102
RTVSPost2010Prop40
 90
        0
102
RTVSPost2010PropOp40
 70
     1
102
RTVSPost2010Prop41ColorIndex
 90
       18
102
RTVSPost2010Prop41ColorRGB
 90
        0
102
RTVSPost2010PropOp41
 70
     1
102
RTVSPost2010Prop42
 90
       50
102
RTVSPost2010PropOp42
 70
     1
102
RTVSPost2010Prop43
 90
        3
102
RTVSPost2010PropOp43
 70
     1
102
RTVSPost2010Prop44ColorIndex
 90
        5
102
RTVSPost2010Prop44ColorRGB
 90
      255
102
RTVSPost2010PropOp44
 70
     1
102
RTVSPost2010Prop45
280
     0
102
RTVSPost2010PropOp45
 70
     1
102
RTVSPost2010Prop46
 90
       50
102
RTVSPost2010PropOp46
 70
     1
102
RTVSPost2010Prop47
 90
       50
102
RTVSPost2010PropOp47
 70
     1
102
RTVSPost2010Prop48
 90
       50
102
RTVSPost2010PropOp48
 70
     1
102
RTVSPost2010Prop49
280
     0
102
RTVSPost2010PropOp49
 70
     1
102
RTVSPost2010Prop50
 90
       50
102
RTVSPost2010PropOp50
 70
     1
102
RTVSPost2010Prop51ColorIndex
 90
      256
102
RTVSPost2010Prop51ColorRGB
 90
-16777216
102
RTVSPost2010PropOp51
 70
     0
102
RTVSPost2010Prop52
140
1.0
102
RTVSPost2010PropOp52
 70
     0
102
RTVSPost2010Prop53
 90
        2
102
RTVSPost2010PropOp53
 70
     1
102
RTVSPost2010Prop54
  1
strokes_ogs.tif
102
RTVSPost2010PropOp54
 70
     1
102
RTVSPost2010Prop55
280
     0
102
RTVSPost2010PropOp55
 70
     1
102
RTVSPost2010Prop56
140
1.0
102
RTVSPost2010PropOp56
 70
     1
102
RTVSPost2010Prop57
140
1.0
102
RTVSPost2010PropOp57
 70
     1
  0
XRECORD
  5
1AF
102
{ACAD_REACTORS
330
1AE
102
}
330
1AE
100
AcDbXrecord
280
     1
102
RTVSPropertyOp0
 70
     1
102
RTVSPropertyOp1
 70
     1
102
RTVSPropertyOp2
 70
     1
102
RTVSPropertyOp3
 70
     1
102
RTVSPropertyOp4
 70
     1
102
RTVSPropertyOp5
 70
     1
102
RTVSPropertyOp6
 70
     1
102
RTVSPropertyOp7
 70
     1
102
RTVSPropertyOp8
 70
     1
102
RTVSPropertyOp9
 70
     1
102
RTVSPropertyOp10
 70
     1
102
RTVSPropertyOp11
 70
     1
102
RTVSPropertyOp12
 70
     1
102
RTVSPropertyOp13
 70
     1
102
RTVSPropertyOp14
 70
     1
102
RTVSPropertyOp15
 70
     1
102
RTVSPropertyOp16
 70
     1
102
RTVSPropertyOp17
 70
     1
102
RTVSPropertyOp18
 70
     1
102
RTVSPropertyOp19
 70
     1
102
RTVSPropertyOp20
 70
     1
102
RTVSPropertyOp21
 70
     1
102
RTVSPropertyOp22
 70
     1
102
RTVSPropertyOp23
 70
     1
102
RTVSPropertyOp24
 70
     1
102
RTVSPropertyOp25
 70
     1
102
RTVSPropertyOp26
 70
     1
102
RTVSPropertyOp27
 70
     1
102
RTVSPropertyOp28
 70
     1
102
RTVSPropertyOp29
 70
     1
102
RTVSPropertyOp30
 70
     1
102
RTVSPropertyOp31
 70
     1
102
RTVSPropertyOp32
 70
     1
102
RTVSPropertyOp33
 70
     1
102
RTVSPropertyOp34
 70
     1
102
RTVSPropertyOp35
 70
     1
102
RTVSPropertyOp36
 70
     1
102
RTVSPropertyOp37
 70
     1
102
RTVSPropertyOp38
 70
     1
102
RTVSPropertyOp39
 70
     1
102
RTVSPropertyOp40
 70
     1
102
RTVSPropertyOp41
 70
     1
102
RTVSPropertyOp42
 70
     1
102
RTVSPropertyOp43
 70
     1
102
RTVSPropertyOp44
 70
     1
102
RTVSPropertyOp45
 70
     1
102
RTVSPropertyOp46
 70
     1
102
RTVSPropertyOp47
 70
     1
102
RTVSPropertyOp48
 70
     1
102
RTVSPropertyOp49
 70
     1
102
RTVSPropertyOp50
 70
     1
102
RTVSPropertyOp51
 70
     0
102
RTVSPropertyOp52
 70
     0
102
RTVSPropertyOp53
 70
     1
102
RTVSPropertyOp54
 70
     1
102
RTVSPropertyOp55
 70
     1
102
RTVSPropertyOp56
 70
     1
102
RTVSPropertyOp57
 70
     1
102
RTVSPost2010Prop28
280
     0
102
RTVSPost2010PropOp28
 70
     1
102
RTVSPost2010Prop29
280
     1
102
RTVSPost2010PropOp29
 70
     1
102
RTVSPost2010Prop30
280
     1
102
RTVSPost2010PropOp30
 70
     1
102
RTVSPost2010Prop31
280
     0
102
RTVSPost2010PropOp31
 70
     1
102
RTVSPost2010Prop32
280
     0
102
RTVSPost2010PropOp32
 70
     1
102
RTVSPost2010Prop33
280
     0
102
RTVSPost2010PropOp33
 70
     1
102
RTVSPost2010Prop34
280
     0
102
RTVSPost2010PropOp34
 70
     1
102
RTVSPost2010Prop35
280
     0
102
RTVSPost2010PropOp35
 70
     1
102
RTVSPost2010Prop36
280
     0
102
RTVSPost2010PropOp36
 70
     1
102
RTVSPost2010Prop37
 90
       50
102
RTVSPost2010PropOp37
 70
     1
102
RTVSPost2010Prop38
140
0.0
102
RTVSPost2010PropOp38
 70
     1
102
RTVSPost2010Prop39
140
1.0
102
RTVSPost2010PropOp39
 70
     1
102
RTVSPost2010Prop40
 90
        0
102
RTVSPost2010PropOp40
 70
     1
102
RTVSPost2010Prop41ColorIndex
 90
       18
102
RTVSPost2010Prop41ColorRGB
 90
        0
102
RTVSPost2010PropOp41
 70
     1
102
RTVSPost2010Prop42
 90
       50
102
RTVSPost2010PropOp42
 70
     1
102
RTVSPost2010Prop43
 90
        3
102
RTVSPost2010PropOp43
 70
     1
102
RTVSPost2010Prop44ColorIndex
 90
        5
102
RTVSPost2010Prop44ColorRGB
 90
      255
102
RTVSPost2010PropOp44
 70
     1
102
RTVSPost2010Prop45
280
     0
102
RTVSPost2010PropOp45
 70
     1
102
RTVSPost2010Prop46
 90
       50
102
RTVSPost2010PropOp46
 70
     1
102
RTVSPost2010Prop47
 90
       50
102
RTVSPost2010PropOp47
 70
     1
102
RTVSPost2010Prop48
 90
       50
102
RTVSPost2010PropOp48
 70
     1
102
RTVSPost2010Prop49
280
     0
102
RTVSPost2010PropOp49
 70
     1
102
RTVSPost2010Prop50
 90
       50
102
RTVSPost2010PropOp50
 70
     1
102
RTVSPost2010Prop51ColorIndex
 90
      256
102
RTVSPost2010Prop51ColorRGB
 90
-16777216
102
RTVSPost2010PropOp51
 70
     0
102
RTVSPost2010Prop52
140
1.0
102
RTVSPost2010PropOp52
 70
     0
102
RTVSPost2010Prop53
 90
        2
102
RTVSPost2010PropOp53
 70
     1
102
RTVSPost2010Prop54
  1
strokes_ogs.tif
102
RTVSPost2010PropOp54
 70
     1
102
RTVSPost2010Prop55
280
     0
102
RTVSPost2010PropOp55
 70
     1
102
RTVSPost2010Prop56
140
1.0
102
RTVSPost2010PropOp56
 70
     1
102
RTVSPost2010Prop57
140
1.0
102
RTVSPost2010PropOp57
 70
     1
  0
XRECORD
  5
1BF
102
{ACAD_REACTORS
330
1BE
102
}
330
1BE
100
AcDbXrecord
280
     1
102
RTVSPropertyOp0
 70
     0
102
RTVSPropertyOp1
 70
     0
102
RTVSPropertyOp2
 70
     0
102
RTVSPropertyOp3
 70
     0
102
RTVSPropertyOp4
 70
     0
102
RTVSPropertyOp5
 70
     0
102
RTVSPropertyOp6
 70
     0
102
RTVSPropertyOp7
 70
     0
102
RTVSPropertyOp8
 70
     0
102
RTVSPropertyOp9
 70
     0
102
RTVSPropertyOp10
 70
     0
102
RTVSPropertyOp11
 70
     0
102
RTVSPropertyOp12
 70
     0
102
RTVSPropertyOp13
 70
     0
102
RTVSPropertyOp14
 70
     2
102
RTVSPropertyOp15
 70
     0
102
RTVSPropertyOp16
 70
     0
102
RTVSPropertyOp17
 70
     0
102
RTVSPropertyOp18
 70
     0
102
RTVSPropertyOp19
 70
     0
102
RTVSPropertyOp20
 70
     0
102
RTVSPropertyOp21
 70
     0
102
RTVSPropertyOp22
 70
     0
102
RTVSPropertyOp23
 70
     0
102
RTVSPropertyOp24
 70
     0
102
RTVSPropertyOp25
 70
     0
102
RTVSPropertyOp26
 70
     0
102
RTVSPropertyOp27
 70
     0
102
RTVSPropertyOp28
 70
     0
102
RTVSPropertyOp29
 70
     0
102
RTVSPropertyOp30
 70
     0
102
RTVSPropertyOp31
 70
     0
102
RTVSPropertyOp32
 70
     0
102
RTVSPropertyOp33
 70
     0
102
RTVSPropertyOp34
 70
     0
102
RTVSPropertyOp35
 70
     0
102
RTVSPropertyOp36
 70
     0
102
RTVSPropertyOp37
 70
     0
102
RTVSPropertyOp38
 70
     0
102
RTVSPropertyOp39
 70
     0
102
RTVSPropertyOp40
 70
     0
102
RTVSPropertyOp41
 70
     0
102
RTVSPropertyOp42
 70
     0
102
RTVSPropertyOp43
 70
     0
102
RTVSPropertyOp44
 70
     0
102
RTVSPropertyOp45
 70
     0
102
RTVSPropertyOp46
 70
     0
102
RTVSPropertyOp47
 70
     0
102
RTVSPropertyOp48
 70
     0
102
RTVSPropertyOp49
 70
     0
102
RTVSPropertyOp50
 70
     0
102
RTVSPropertyOp51
 70
     0
102
RTVSPropertyOp52
 70
     0
102
RTVSPropertyOp53
 70
     0
102
RTVSPropertyOp54
 70
     0
102
RTVSPropertyOp55
 70
     0
102
RTVSPropertyOp56
 70
     0
102
RTVSPropertyOp57
 70
     0
102
RTVSPost2010Prop28
280
     0
102
RTVSPost2010PropOp28
 70
     0
102
RTVSPost2010Prop29
280
     1
102
RTVSPost2010PropOp29
 70
     0
102
RTVSPost2010Prop30
280
     1
102
RTVSPost2010PropOp30
 70
     0
102
RTVSPost2010Prop31
280
     0
102
RTVSPost2010PropOp31
 70
     0
102
RTVSPost2010Prop32
280
     0
102
RTVSPost2010PropOp32
 70
     0
102
RTVSPost2010Prop33
280
     0
102
RTVSPost2010PropOp33
 70
     0
102
RTVSPost2010Prop34
280
     0
102
RTVSPost2010PropOp34
 70
     0
102
RTVSPost2010Prop35
280
     0
102
RTVSPost2010PropOp35
 70
     0
102
RTVSPost2010Prop36
280
     0
102
RTVSPost2010PropOp36
 70
     0
102
RTVSPost2010Prop37
 90
       50
102
RTVSPost2010PropOp37
 70
     0
102
RTVSPost2010Prop38
140
0.0
102
RTVSPost2010PropOp38
 70
     0
102
RTVSPost2010Prop39
140
1.0
102
RTVSPost2010PropOp39
 70
     0
102
RTVSPost2010Prop40
 90
        0
102
RTVSPost2010PropOp40
 70
     0
102
RTVSPost2010Prop41ColorIndex
 90
       18
102
RTVSPost2010Prop41ColorRGB
 90
        0
102
RTVSPost2010PropOp41
 70
     0
102
RTVSPost2010Prop42
 90
       50
102
RTVSPost2010PropOp42
 70
     0
102
RTVSPost2010Prop43
 90
        3
102
RTVSPost2010PropOp43
 70
     0
102
RTVSPost2010Prop44ColorIndex
 90
        5
102
RTVSPost2010Prop44ColorRGB
 90
      255
102
RTVSPost2010PropOp44
 70
     0
102
RTVSPost2010Prop45
280
     0
102
RTVSPost2010PropOp45
 70
     0
102
RTVSPost2010Prop46
 90
       50
102
RTVSPost2010PropOp46
 70
     0
102
RTVSPost2010Prop47
 90
       50
102
RTVSPost2010PropOp47
 70
     0
102
RTVSPost2010Prop48
 90
       50
102
RTVSPost2010PropOp48
 70
     0
102
RTVSPost2010Prop49
280
     0
102
RTVSPost2010PropOp49
 70
     0
102
RTVSPost2010Prop50
 90
       50
102
RTVSPost2010PropOp50
 70
     0
102
RTVSPost2010Prop51ColorIndex
 90
      256
102
RTVSPost2010Prop51ColorRGB
 90
-16777216
102
RTVSPost2010PropOp51
 70
     0
102
RTVSPost2010Prop52
140
1.0
102
RTVSPost2010PropOp52
 70
     0
102
RTVSPost2010Prop53
 90
        2
102
RTVSPost2010PropOp53
 70
     0
102
RTVSPost2010Prop54
  1
strokes_ogs.tif
102
RTVSPost2010PropOp54
 70
     0
102
RTVSPost2010Prop55
280
     0
102
RTVSPost2010PropOp55
 70
     0
102
RTVSPost2010Prop56
140
1.0
102
RTVSPost2010PropOp56
 70
     0
102
RTVSPost2010Prop57
140
1.0
102
RTVSPost2010PropOp57
 70
     0
  0
XRECORD
  5
1B7
102
{ACAD_REACTORS
330
1B6
102
}
330
1B6
100
AcDbXrecord
280
     1
102
RTVSPropertyOp0
 70
     1
102
RTVSPropertyOp1
 70
     1
102
RTVSPropertyOp2
 70
     1
102
RTVSPropertyOp3
 70
     1
102
RTVSPropertyOp4
 70
     1
102
RTVSPropertyOp5
 70
     1
102
RTVSPropertyOp6
 70
     1
102
RTVSPropertyOp7
 70
     1
102
RTVSPropertyOp8
 70
     1
102
RTVSPropertyOp9
 70
     1
102
RTVSPropertyOp10
 70
     1
102
RTVSPropertyOp11
 70
     1
102
RTVSPropertyOp12
 70
     1
102
RTVSPropertyOp13
 70
     1
102
RTVSPropertyOp14
 70
     1
102
RTVSPropertyOp15
 70
     1
102
RTVSPropertyOp16
 70
     1
102
RTVSPropertyOp17
 70
     1
102
RTVSPropertyOp18
 70
     1
102
RTVSPropertyOp19
 70
     1
102
RTVSPropertyOp20
 70
     1
102
RTVSPropertyOp21
 70
     1
102
RTVSPropertyOp22
 70
     1
102
RTVSPropertyOp23
 70
     1
102
RTVSPropertyOp24
 70
     1
102
RTVSPropertyOp25
 70
     1
102
RTVSPropertyOp26
 70
     1
102
RTVSPropertyOp27
 70
     1
102
RTVSPropertyOp28
 70
     1
102
RTVSPropertyOp29
 70
     1
102
RTVSPropertyOp30
 70
     1
102
RTVSPropertyOp31
 70
     1
102
RTVSPropertyOp32
 70
     1
102
RTVSPropertyOp33
 70
     1
102
RTVSPropertyOp34
 70
     1
102
RTVSPropertyOp35
 70
     1
102
RTVSPropertyOp36
 70
     1
102
RTVSPropertyOp37
 70
     1
102
RTVSPropertyOp38
 70
     1
102
RTVSPropertyOp39
 70
     1
102
RTVSPropertyOp40
 70
     1
102
RTVSPropertyOp41
 70
     1
102
RTVSPropertyOp42
 70
     1
102
RTVSPropertyOp43
 70
     1
102
RTVSPropertyOp44
 70
     1
102
RTVSPropertyOp45
 70
     1
102
RTVSPropertyOp46
 70
     1
102
RTVSPropertyOp47
 70
     1
102
RTVSPropertyOp48
 70
     1
102
RTVSPropertyOp49
 70
     1
102
RTVSPropertyOp50
 70
     1
102
RTVSPropertyOp51
 70
     0
102
RTVSPropertyOp52
 70
     0
102
RTVSPropertyOp53
 70
     1
102
RTVSPropertyOp54
 70
     1
102
RTVSPropertyOp55
 70
     1
102
RTVSPropertyOp56
 70
     1
102
RTVSPropertyOp57
 70
     1
102
RTVSPost2010Prop28
280
     0
102
RTVSPost2010PropOp28
 70
     1
102
RTVSPost2010Prop29
280
     1
102
RTVSPost2010PropOp29
 70
     1
102
RTVSPost2010Prop30
280
     1
102
RTVSPost2010PropOp30
 70
     1
102
RTVSPost2010Prop31
280
     0
102
RTVSPost2010PropOp31
 70
     1
102
RTVSPost2010Prop32
280
     0
102
RTVSPost2010PropOp32
 70
     1
102
RTVSPost2010Prop33
280
     0
102
RTVSPost2010PropOp33
 70
     1
102
RTVSPost2010Prop34
280
     0
102
RTVSPost2010PropOp34
 70
     1
102
RTVSPost2010Prop35
280
     0
102
RTVSPost2010PropOp35
 70
     1
102
RTVSPost2010Prop36
280
     0
102
RTVSPost2010PropOp36
 70
     1
102
RTVSPost2010Prop37
 90
       50
102
RTVSPost2010PropOp37
 70
     1
102
RTVSPost2010Prop38
140
0.0
102
RTVSPost2010PropOp38
 70
     1
102
RTVSPost2010Prop39
140
1.0
102
RTVSPost2010PropOp39
 70
     1
102
RTVSPost2010Prop40
 90
        0
102
RTVSPost2010PropOp40
 70
     1
102
RTVSPost2010Prop41ColorIndex
 90
       18
102
RTVSPost2010Prop41ColorRGB
 90
        0
102
RTVSPost2010PropOp41
 70
     1
102
RTVSPost2010Prop42
 90
       50
102
RTVSPost2010PropOp42
 70
     1
102
RTVSPost2010Prop43
 90
        3
102
RTVSPost2010PropOp43
 70
     1
102
RTVSPost2010Prop44ColorIndex
 90
        5
102
RTVSPost2010Prop44ColorRGB
 90
      255
102
RTVSPost2010PropOp44
 70
     1
102
RTVSPost2010Prop45
280
     0
102
RTVSPost2010PropOp45
 70
     1
102
RTVSPost2010Prop46
 90
       50
102
RTVSPost2010PropOp46
 70
     1
102
RTVSPost2010Prop47
 90
       50
102
RTVSPost2010PropOp47
 70
     1
102
RTVSPost2010Prop48
 90
       50
102
RTVSPost2010PropOp48
 70
     1
102
RTVSPost2010Prop49
280
     0
102
RTVSPost2010PropOp49
 70
     1
102
RTVSPost2010Prop50
 90
       50
102
RTVSPost2010PropOp50
 70
     1
102
RTVSPost2010Prop51ColorIndex
 90
      256
102
RTVSPost2010Prop51ColorRGB
 90
-16777216
102
RTVSPost2010PropOp51
 70
     0
102
RTVSPost2010Prop52
140
1.0
102
RTVSPost2010PropOp52
 70
     0
102
RTVSPost2010Prop53
 90
        2
102
RTVSPost2010PropOp53
 70
     1
102
RTVSPost2010Prop54
  1
strokes_ogs.tif
102
RTVSPost2010PropOp54
 70
     1
102
RTVSPost2010Prop55
280
     0
102
RTVSPost2010PropOp55
 70
     1
102
RTVSPost2010Prop56
140
1.0
102
RTVSPost2010PropOp56
 70
     1
102
RTVSPost2010Prop57
140
1.0
102
RTVSPost2010PropOp57
 70
     1
  0
XRECORD
  5
19B
102
{ACAD_REACTORS
330
19A
102
}
330
19A
100
AcDbXrecord
280
     1
102
RTVSPropertyOp0
 70
     1
102
RTVSPropertyOp1
 70
     1
102
RTVSPropertyOp2
 70
     1
102
RTVSPropertyOp3
 70
     1
102
RTVSPropertyOp4
 70
     1
102
RTVSPropertyOp5
 70
     1
102
RTVSPropertyOp6
 70
     1
102
RTVSPropertyOp7
 70
     1
102
RTVSPropertyOp8
 70
     1
102
RTVSPropertyOp9
 70
     1
102
RTVSPropertyOp10
 70
     1
102
RTVSPropertyOp11
 70
     1
102
RTVSPropertyOp12
 70
     1
102
RTVSPropertyOp13
 70
     1
102
RTVSPropertyOp14
 70
     1
102
RTVSPropertyOp15
 70
     1
102
RTVSPropertyOp16
 70
     1
102
RTVSPropertyOp17
 70
     1
102
RTVSPropertyOp18
 70
     1
102
RTVSPropertyOp19
 70
     1
102
RTVSPropertyOp20
 70
     1
102
RTVSPropertyOp21
 70
     1
102
RTVSPropertyOp22
 70
     1
102
RTVSPropertyOp23
 70
     1
102
RTVSPropertyOp24
 70
     1
102
RTVSPropertyOp25
 70
     1
102
RTVSPropertyOp26
 70
     1
102
RTVSPropertyOp27
 70
     1
102
RTVSPropertyOp28
 70
     1
102
RTVSPropertyOp29
 70
     1
102
RTVSPropertyOp30
 70
     1
102
RTVSPropertyOp31
 70
     1
102
RTVSPropertyOp32
 70
     1
102
RTVSPropertyOp33
 70
     1
102
RTVSPropertyOp34
 70
     1
102
RTVSPropertyOp35
 70
     1
102
RTVSPropertyOp36
 70
     1
102
RTVSPropertyOp37
 70
     1
102
RTVSPropertyOp38
 70
     1
102
RTVSPropertyOp39
 70
     1
102
RTVSPropertyOp40
 70
     1
102
RTVSPropertyOp41
 70
     1
102
RTVSPropertyOp42
 70
     1
102
RTVSPropertyOp43
 70
     1
102
RTVSPropertyOp44
 70
     1
102
RTVSPropertyOp45
 70
     1
102
RTVSPropertyOp46
 70
     1
102
RTVSPropertyOp47
 70
     1
102
RTVSPropertyOp48
 70
     1
102
RTVSPropertyOp49
 70
     1
102
RTVSPropertyOp50
 70
     1
102
RTVSPropertyOp51
 70
     0
102
RTVSPropertyOp52
 70
     0
102
RTVSPropertyOp53
 70
     1
102
RTVSPropertyOp54
 70
     1
102
RTVSPropertyOp55
 70
     1
102
RTVSPropertyOp56
 70
     1
102
RTVSPropertyOp57
 70
     1
102
RTVSPost2010Prop28
280
     0
102
RTVSPost2010PropOp28
 70
     1
102
RTVSPost2010Prop29
280
     1
102
RTVSPost2010PropOp29
 70
     1
102
RTVSPost2010Prop30
280
     1
102
RTVSPost2010PropOp30
 70
     1
102
RTVSPost2010Prop31
280
     0
102
RTVSPost2010PropOp31
 70
     1
102
RTVSPost2010Prop32
280
     0
102
RTVSPost2010PropOp32
 70
     1
102
RTVSPost2010Prop33
280
     0
102
RTVSPost2010PropOp33
 70
     1
102
RTVSPost2010Prop34
280
     0
102
RTVSPost2010PropOp34
 70
     1
102
RTVSPost2010Prop35
280
     0
102
RTVSPost2010PropOp35
 70
     1
102
RTVSPost2010Prop36
280
     0
102
RTVSPost2010PropOp36
 70
     1
102
RTVSPost2010Prop37
 90
       50
102
RTVSPost2010PropOp37
 70
     1
102
RTVSPost2010Prop38
140
0.0
102
RTVSPost2010PropOp38
 70
     1
102
RTVSPost2010Prop39
140
1.0
102
RTVSPost2010PropOp39
 70
     1
102
RTVSPost2010Prop40
 90
        0
102
RTVSPost2010PropOp40
 70
     1
102
RTVSPost2010Prop41ColorIndex
 90
       18
102
RTVSPost2010Prop41ColorRGB
 90
        0
102
RTVSPost2010PropOp41
 70
     1
102
RTVSPost2010Prop42
 90
       50
102
RTVSPost2010PropOp42
 70
     1
102
RTVSPost2010Prop43
 90
        3
102
RTVSPost2010PropOp43
 70
     1
102
RTVSPost2010Prop44ColorIndex
 90
        5
102
RTVSPost2010Prop44ColorRGB
 90
      255
102
RTVSPost2010PropOp44
 70
     1
102
RTVSPost2010Prop45
280
     0
102
RTVSPost2010PropOp45
 70
     1
102
RTVSPost2010Prop46
 90
       50
102
RTVSPost2010PropOp46
 70
     1
102
RTVSPost2010Prop47
 90
       50
102
RTVSPost2010PropOp47
 70
     1
102
RTVSPost2010Prop48
 90
       50
102
RTVSPost2010PropOp48
 70
     1
102
RTVSPost2010Prop49
280
     0
102
RTVSPost2010PropOp49
 70
     1
102
RTVSPost2010Prop50
 90
       50
102
RTVSPost2010PropOp50
 70
     1
102
RTVSPost2010Prop51ColorIndex
 90
      256
102
RTVSPost2010Prop51ColorRGB
 90
-16777216
102
RTVSPost2010PropOp51
 70
     0
102
RTVSPost2010Prop52
140
1.0
102
RTVSPost2010PropOp52
 70
     0
102
RTVSPost2010Prop53
 90
        2
102
RTVSPost2010PropOp53
 70
     1
102
RTVSPost2010Prop54
  1
strokes_ogs.tif
102
RTVSPost2010PropOp54
 70
     1
102
RTVSPost2010Prop55
280
     0
102
RTVSPost2010PropOp55
 70
     1
102
RTVSPost2010Prop56
140
1.0
102
RTVSPost2010PropOp56
 70
     1
102
RTVSPost2010Prop57
140
1.0
102
RTVSPost2010PropOp57
 70
     1
  0
XRECORD
  5
19D
102
{ACAD_REACTORS
330
19C
102
}
330
19C
100
AcDbXrecord
280
     1
102
RTVSPropertyOp0
 70
     1
102
RTVSPropertyOp1
 70
     1
102
RTVSPropertyOp2
 70
     1
102
RTVSPropertyOp3
 70
     1
102
RTVSPropertyOp4
 70
     1
102
RTVSPropertyOp5
 70
     1
102
RTVSPropertyOp6
 70
     1
102
RTVSPropertyOp7
 70
     1
102
RTVSPropertyOp8
 70
     1
102
RTVSPropertyOp9
 70
     1
102
RTVSPropertyOp10
 70
     1
102
RTVSPropertyOp11
 70
     1
102
RTVSPropertyOp12
 70
     1
102
RTVSPropertyOp13
 70
     1
102
RTVSPropertyOp14
 70
     1
102
RTVSPropertyOp15
 70
     1
102
RTVSPropertyOp16
 70
     1
102
RTVSPropertyOp17
 70
     1
102
RTVSPropertyOp18
 70
     1
102
RTVSPropertyOp19
 70
     1
102
RTVSPropertyOp20
 70
     1
102
RTVSPropertyOp21
 70
     1
102
RTVSPropertyOp22
 70
     1
102
RTVSPropertyOp23
 70
     1
102
RTVSPropertyOp24
 70
     1
102
RTVSPropertyOp25
 70
     1
102
RTVSPropertyOp26
 70
     1
102
RTVSPropertyOp27
 70
     1
102
RTVSPropertyOp28
 70
     1
102
RTVSPropertyOp29
 70
     1
102
RTVSPropertyOp30
 70
     1
102
RTVSPropertyOp31
 70
     1
102
RTVSPropertyOp32
 70
     1
102
RTVSPropertyOp33
 70
     1
102
RTVSPropertyOp34
 70
     1
102
RTVSPropertyOp35
 70
     1
102
RTVSPropertyOp36
 70
     1
102
RTVSPropertyOp37
 70
     1
102
RTVSPropertyOp38
 70
     1
102
RTVSPropertyOp39
 70
     1
102
RTVSPropertyOp40
 70
     1
102
RTVSPropertyOp41
 70
     1
102
RTVSPropertyOp42
 70
     1
102
RTVSPropertyOp43
 70
     1
102
RTVSPropertyOp44
 70
     1
102
RTVSPropertyOp45
 70
     1
102
RTVSPropertyOp46
 70
     1
102
RTVSPropertyOp47
 70
     1
102
RTVSPropertyOp48
 70
     1
102
RTVSPropertyOp49
 70
     1
102
RTVSPropertyOp50
 70
     1
102
RTVSPropertyOp51
 70
     0
102
RTVSPropertyOp52
 70
     0
102
RTVSPropertyOp53
 70
     1
102
RTVSPropertyOp54
 70
     1
102
RTVSPropertyOp55
 70
     1
102
RTVSPropertyOp56
 70
     1
102
RTVSPropertyOp57
 70
     1
102
RTVSPost2010Prop28
280
     0
102
RTVSPost2010PropOp28
 70
     1
102
RTVSPost2010Prop29
280
     1
102
RTVSPost2010PropOp29
 70
     1
102
RTVSPost2010Prop30
280
     1
102
RTVSPost2010PropOp30
 70
     1
102
RTVSPost2010Prop31
280
     0
102
RTVSPost2010PropOp31
 70
     1
102
RTVSPost2010Prop32
280
     0
102
RTVSPost2010PropOp32
 70
     1
102
RTVSPost2010Prop33
280
     0
102
RTVSPost2010PropOp33
 70
     1
102
RTVSPost2010Prop34
280
     0
102
RTVSPost2010PropOp34
 70
     1
102
RTVSPost2010Prop35
280
     0
102
RTVSPost2010PropOp35
 70
     1
102
RTVSPost2010Prop36
280
     0
102
RTVSPost2010PropOp36
 70
     1
102
RTVSPost2010Prop37
 90
       50
102
RTVSPost2010PropOp37
 70
     1
102
RTVSPost2010Prop38
140
0.0
102
RTVSPost2010PropOp38
 70
     1
102
RTVSPost2010Prop39
140
1.0
102
RTVSPost2010PropOp39
 70
     1
102
RTVSPost2010Prop40
 90
        0
102
RTVSPost2010PropOp40
 70
     1
102
RTVSPost2010Prop41ColorIndex
 90
       18
102
RTVSPost2010Prop41ColorRGB
 90
        0
102
RTVSPost2010PropOp41
 70
     1
102
RTVSPost2010Prop42
 90
       50
102
RTVSPost2010PropOp42
 70
     1
102
RTVSPost2010Prop43
 90
        3
102
RTVSPost2010PropOp43
 70
     1
102
RTVSPost2010Prop44ColorIndex
 90
        5
102
RTVSPost2010Prop44ColorRGB
 90
      255
102
RTVSPost2010PropOp44
 70
     1
102
RTVSPost2010Prop45
280
     0
102
RTVSPost2010PropOp45
 70
     1
102
RTVSPost2010Prop46
 90
       50
102
RTVSPost2010PropOp46
 70
     1
102
RTVSPost2010Prop47
 90
       50
102
RTVSPost2010PropOp47
 70
     1
102
RTVSPost2010Prop48
 90
       50
102
RTVSPost2010PropOp48
 70
     1
102
RTVSPost2010Prop49
280
     0
102
RTVSPost2010PropOp49
 70
     1
102
RTVSPost2010Prop50
 90
       50
102
RTVSPost2010PropOp50
 70
     1
102
RTVSPost2010Prop51ColorIndex
 90
      256
102
RTVSPost2010Prop51ColorRGB
 90
-16777216
102
RTVSPost2010PropOp51
 70
     0
102
RTVSPost2010Prop52
140
1.0
102
RTVSPost2010PropOp52
 70
     0
102
RTVSPost2010Prop53
 90
        2
102
RTVSPost2010PropOp53
 70
     1
102
RTVSPost2010Prop54
  1
strokes_ogs.tif
102
RTVSPost2010PropOp54
 70
     1
102
RTVSPost2010Prop55
280
     0
102
RTVSPost2010PropOp55
 70
     1
102
RTVSPost2010Prop56
140
1.0
102
RTVSPost2010PropOp56
 70
     1
102
RTVSPost2010Prop57
140
1.0
102
RTVSPost2010PropOp57
 70
     1
  0
XRECORD
  5
19F
102
{ACAD_REACTORS
330
19E
102
}
330
19E
100
AcDbXrecord
280
     1
102
RTVSPropertyOp0
 70
     1
102
RTVSPropertyOp1
 70
     1
102
RTVSPropertyOp2
 70
     1
102
RTVSPropertyOp3
 70
     1
102
RTVSPropertyOp4
 70
     1
102
RTVSPropertyOp5
 70
     1
102
RTVSPropertyOp6
 70
     1
102
RTVSPropertyOp7
 70
     1
102
RTVSPropertyOp8
 70
     1
102
RTVSPropertyOp9
 70
     1
102
RTVSPropertyOp10
 70
     1
102
RTVSPropertyOp11
 70
     1
102
RTVSPropertyOp12
 70
     1
102
RTVSPropertyOp13
 70
     1
102
RTVSPropertyOp14
 70
     1
102
RTVSPropertyOp15
 70
     1
102
RTVSPropertyOp16
 70
     1
102
RTVSPropertyOp17
 70
     1
102
RTVSPropertyOp18
 70
     1
102
RTVSPropertyOp19
 70
     1
102
RTVSPropertyOp20
 70
     1
102
RTVSPropertyOp21
 70
     1
102
RTVSPropertyOp22
 70
     1
102
RTVSPropertyOp23
 70
     1
102
RTVSPropertyOp24
 70
     1
102
RTVSPropertyOp25
 70
     1
102
RTVSPropertyOp26
 70
     1
102
RTVSPropertyOp27
 70
     1
102
RTVSPropertyOp28
 70
     1
102
RTVSPropertyOp29
 70
     1
102
RTVSPropertyOp30
 70
     1
102
RTVSPropertyOp31
 70
     1
102
RTVSPropertyOp32
 70
     1
102
RTVSPropertyOp33
 70
     1
102
RTVSPropertyOp34
 70
     1
102
RTVSPropertyOp35
 70
     1
102
RTVSPropertyOp36
 70
     1
102
RTVSPropertyOp37
 70
     1
102
RTVSPropertyOp38
 70
     1
102
RTVSPropertyOp39
 70
     1
102
RTVSPropertyOp40
 70
     1
102
RTVSPropertyOp41
 70
     1
102
RTVSPropertyOp42
 70
     1
102
RTVSPropertyOp43
 70
     1
102
RTVSPropertyOp44
 70
     1
102
RTVSPropertyOp45
 70
     1
102
RTVSPropertyOp46
 70
     1
102
RTVSPropertyOp47
 70
     1
102
RTVSPropertyOp48
 70
     1
102
RTVSPropertyOp49
 70
     1
102
RTVSPropertyOp50
 70
     1
102
RTVSPropertyOp51
 70
     0
102
RTVSPropertyOp52
 70
     0
102
RTVSPropertyOp53
 70
     1
102
RTVSPropertyOp54
 70
     1
102
RTVSPropertyOp55
 70
     1
102
RTVSPropertyOp56
 70
     1
102
RTVSPropertyOp57
 70
     1
102
RTVSPost2010Prop28
280
     0
102
RTVSPost2010PropOp28
 70
     1
102
RTVSPost2010Prop29
280
     1
102
RTVSPost2010PropOp29
 70
     1
102
RTVSPost2010Prop30
280
     1
102
RTVSPost2010PropOp30
 70
     1
102
RTVSPost2010Prop31
280
     0
102
RTVSPost2010PropOp31
 70
     1
102
RTVSPost2010Prop32
280
     0
102
RTVSPost2010PropOp32
 70
     1
102
RTVSPost2010Prop33
280
     0
102
RTVSPost2010PropOp33
 70
     1
102
RTVSPost2010Prop34
280
     0
102
RTVSPost2010PropOp34
 70
     1
102
RTVSPost2010Prop35
280
     0
102
RTVSPost2010PropOp35
 70
     1
102
RTVSPost2010Prop36
280
     0
102
RTVSPost2010PropOp36
 70
     1
102
RTVSPost2010Prop37
 90
       50
102
RTVSPost2010PropOp37
 70
     1
102
RTVSPost2010Prop38
140
0.0
102
RTVSPost2010PropOp38
 70
     1
102
RTVSPost2010Prop39
140
1.0
102
RTVSPost2010PropOp39
 70
     1
102
RTVSPost2010Prop40
 90
        0
102
RTVSPost2010PropOp40
 70
     1
102
RTVSPost2010Prop41ColorIndex
 90
       18
102
RTVSPost2010Prop41ColorRGB
 90
        0
102
RTVSPost2010PropOp41
 70
     1
102
RTVSPost2010Prop42
 90
       50
102
RTVSPost2010PropOp42
 70
     1
102
RTVSPost2010Prop43
 90
        3
102
RTVSPost2010PropOp43
 70
     1
102
RTVSPost2010Prop44ColorIndex
 90
        5
102
RTVSPost2010Prop44ColorRGB
 90
      255
102
RTVSPost2010PropOp44
 70
     1
102
RTVSPost2010Prop45
280
     0
102
RTVSPost2010PropOp45
 70
     1
102
RTVSPost2010Prop46
 90
       50
102
RTVSPost2010PropOp46
 70
     1
102
RTVSPost2010Prop47
 90
       50
102
RTVSPost2010PropOp47
 70
     1
102
RTVSPost2010Prop48
 90
       50
102
RTVSPost2010PropOp48
 70
     1
102
RTVSPost2010Prop49
280
     0
102
RTVSPost2010PropOp49
 70
     1
102
RTVSPost2010Prop50
 90
       50
102
RTVSPost2010PropOp50
 70
     1
102
RTVSPost2010Prop51ColorIndex
 90
      256
102
RTVSPost2010Prop51ColorRGB
 90
-16777216
102
RTVSPost2010PropOp51
 70
     0
102
RTVSPost2010Prop52
140
1.0
102
RTVSPost2010PropOp52
 70
     0
102
RTVSPost2010Prop53
 90
        2
102
RTVSPost2010PropOp53
 70
     1
102
RTVSPost2010Prop54
  1
strokes_ogs.tif
102
RTVSPost2010PropOp54
 70
     1
102
RTVSPost2010Prop55
280
     0
102
RTVSPost2010PropOp55
 70
     1
102
RTVSPost2010Prop56
140
1.0
102
RTVSPost2010PropOp56
 70
     1
102
RTVSPost2010Prop57
140
1.0
102
RTVSPost2010PropOp57
 70
     1
  0
XRECORD
  5
1A1
102
{ACAD_REACTORS
330
1A0
102
}
330
1A0
100
AcDbXrecord
280
     1
102
RTVSPropertyOp0
 70
     1
102
RTVSPropertyOp1
 70
     1
102
RTVSPropertyOp2
 70
     1
102
RTVSPropertyOp3
 70
     1
102
RTVSPropertyOp4
 70
     1
102
RTVSPropertyOp5
 70
     1
102
RTVSPropertyOp6
 70
     1
102
RTVSPropertyOp7
 70
     1
102
RTVSPropertyOp8
 70
     1
102
RTVSPropertyOp9
 70
     1
102
RTVSPropertyOp10
 70
     1
102
RTVSPropertyOp11
 70
     1
102
RTVSPropertyOp12
 70
     1
102
RTVSPropertyOp13
 70
     1
102
RTVSPropertyOp14
 70
     1
102
RTVSPropertyOp15
 70
     1
102
RTVSPropertyOp16
 70
     1
102
RTVSPropertyOp17
 70
     1
102
RTVSPropertyOp18
 70
     1
102
RTVSPropertyOp19
 70
     1
102
RTVSPropertyOp20
 70
     1
102
RTVSPropertyOp21
 70
     1
102
RTVSPropertyOp22
 70
     1
102
RTVSPropertyOp23
 70
     1
102
RTVSPropertyOp24
 70
     1
102
RTVSPropertyOp25
 70
     1
102
RTVSPropertyOp26
 70
     1
102
RTVSPropertyOp27
 70
     1
102
RTVSPropertyOp28
 70
     1
102
RTVSPropertyOp29
 70
     1
102
RTVSPropertyOp30
 70
     1
102
RTVSPropertyOp31
 70
     1
102
RTVSPropertyOp32
 70
     1
102
RTVSPropertyOp33
 70
     1
102
RTVSPropertyOp34
 70
     1
102
RTVSPropertyOp35
 70
     1
102
RTVSPropertyOp36
 70
     1
102
RTVSPropertyOp37
 70
     1
102
RTVSPropertyOp38
 70
     1
102
RTVSPropertyOp39
 70
     1
102
RTVSPropertyOp40
 70
     1
102
RTVSPropertyOp41
 70
     1
102
RTVSPropertyOp42
 70
     1
102
RTVSPropertyOp43
 70
     1
102
RTVSPropertyOp44
 70
     1
102
RTVSPropertyOp45
 70
     1
102
RTVSPropertyOp46
 70
     1
102
RTVSPropertyOp47
 70
     1
102
RTVSPropertyOp48
 70
     1
102
RTVSPropertyOp49
 70
     1
102
RTVSPropertyOp50
 70
     1
102
RTVSPropertyOp51
 70
     0
102
RTVSPropertyOp52
 70
     0
102
RTVSPropertyOp53
 70
     1
102
RTVSPropertyOp54
 70
     1
102
RTVSPropertyOp55
 70
     1
102
RTVSPropertyOp56
 70
     1
102
RTVSPropertyOp57
 70
     1
102
RTVSPost2010Prop28
280
     0
102
RTVSPost2010PropOp28
 70
     1
102
RTVSPost2010Prop29
280
     1
102
RTVSPost2010PropOp29
 70
     1
102
RTVSPost2010Prop30
280
     1
102
RTVSPost2010PropOp30
 70
     1
102
RTVSPost2010Prop31
280
     0
102
RTVSPost2010PropOp31
 70
     1
102
RTVSPost2010Prop32
280
     0
102
RTVSPost2010PropOp32
 70
     1
102
RTVSPost2010Prop33
280
     0
102
RTVSPost2010PropOp33
 70
     1
102
RTVSPost2010Prop34
280
     0
102
RTVSPost2010PropOp34
 70
     1
102
RTVSPost2010Prop35
280
     0
102
RTVSPost2010PropOp35
 70
     1
102
RTVSPost2010Prop36
280
     0
102
RTVSPost2010PropOp36
 70
     1
102
RTVSPost2010Prop37
 90
       50
102
RTVSPost2010PropOp37
 70
     1
102
RTVSPost2010Prop38
140
0.0
102
RTVSPost2010PropOp38
 70
     1
102
RTVSPost2010Prop39
140
1.0
102
RTVSPost2010PropOp39
 70
     1
102
RTVSPost2010Prop40
 90
        0
102
RTVSPost2010PropOp40
 70
     1
102
RTVSPost2010Prop41ColorIndex
 90
       18
102
RTVSPost2010Prop41ColorRGB
 90
        0
102
RTVSPost2010PropOp41
 70
     1
102
RTVSPost2010Prop42
 90
       50
102
RTVSPost2010PropOp42
 70
     1
102
RTVSPost2010Prop43
 90
        3
102
RTVSPost2010PropOp43
 70
     1
102
RTVSPost2010Prop44ColorIndex
 90
        5
102
RTVSPost2010Prop44ColorRGB
 90
      255
102
RTVSPost2010PropOp44
 70
     1
102
RTVSPost2010Prop45
280
     0
102
RTVSPost2010PropOp45
 70
     1
102
RTVSPost2010Prop46
 90
       50
102
RTVSPost2010PropOp46
 70
     1
102
RTVSPost2010Prop47
 90
       50
102
RTVSPost2010PropOp47
 70
     1
102
RTVSPost2010Prop48
 90
       50
102
RTVSPost2010PropOp48
 70
     1
102
RTVSPost2010Prop49
280
     0
102
RTVSPost2010PropOp49
 70
     1
102
RTVSPost2010Prop50
 90
       50
102
RTVSPost2010PropOp50
 70
     1
102
RTVSPost2010Prop51ColorIndex
 90
      256
102
RTVSPost2010Prop51ColorRGB
 90
-16777216
102
RTVSPost2010PropOp51
 70
     0
102
RTVSPost2010Prop52
140
1.0
102
RTVSPost2010PropOp52
 70
     0
102
RTVSPost2010Prop53
 90
        2
102
RTVSPost2010PropOp53
 70
     1
102
RTVSPost2010Prop54
  1
strokes_ogs.tif
102
RTVSPost2010PropOp54
 70
     1
102
RTVSPost2010Prop55
280
     0
102
RTVSPost2010PropOp55
 70
     1
102
RTVSPost2010Prop56
140
1.0
102
RTVSPost2010PropOp56
 70
     1
102
RTVSPost2010Prop57
140
1.0
102
RTVSPost2010PropOp57
 70
     1
  0
XRECORD
  5
1A7
102
{ACAD_REACTORS
330
1A6
102
}
330
1A6
100
AcDbXrecord
280
     1
102
RTVSPropertyOp0
 70
     1
102
RTVSPropertyOp1
 70
     1
102
RTVSPropertyOp2
 70
     1
102
RTVSPropertyOp3
 70
     1
102
RTVSPropertyOp4
 70
     1
102
RTVSPropertyOp5
 70
     1
102
RTVSPropertyOp6
 70
     1
102
RTVSPropertyOp7
 70
     1
102
RTVSPropertyOp8
 70
     1
102
RTVSPropertyOp9
 70
     1
102
RTVSPropertyOp10
 70
     1
102
RTVSPropertyOp11
 70
     1
102
RTVSPropertyOp12
 70
     1
102
RTVSPropertyOp13
 70
     1
102
RTVSPropertyOp14
 70
     1
102
RTVSPropertyOp15
 70
     1
102
RTVSPropertyOp16
 70
     1
102
RTVSPropertyOp17
 70
     1
102
RTVSPropertyOp18
 70
     1
102
RTVSPropertyOp19
 70
     1
102
RTVSPropertyOp20
 70
     1
102
RTVSPropertyOp21
 70
     1
102
RTVSPropertyOp22
 70
     1
102
RTVSPropertyOp23
 70
     1
102
RTVSPropertyOp24
 70
     1
102
RTVSPropertyOp25
 70
     1
102
RTVSPropertyOp26
 70
     1
102
RTVSPropertyOp27
 70
     1
102
RTVSPropertyOp28
 70
     1
102
RTVSPropertyOp29
 70
     1
102
RTVSPropertyOp30
 70
     1
102
RTVSPropertyOp31
 70
     1
102
RTVSPropertyOp32
 70
     1
102
RTVSPropertyOp33
 70
     1
102
RTVSPropertyOp34
 70
     1
102
RTVSPropertyOp35
 70
     1
102
RTVSPropertyOp36
 70
     1
102
RTVSPropertyOp37
 70
     1
102
RTVSPropertyOp38
 70
     1
102
RTVSPropertyOp39
 70
     1
102
RTVSPropertyOp40
 70
     1
102
RTVSPropertyOp41
 70
     1
102
RTVSPropertyOp42
 70
     1
102
RTVSPropertyOp43
 70
     1
102
RTVSPropertyOp44
 70
     1
102
RTVSPropertyOp45
 70
     1
102
RTVSPropertyOp46
 70
     1
102
RTVSPropertyOp47
 70
     1
102
RTVSPropertyOp48
 70
     1
102
RTVSPropertyOp49
 70
     1
102
RTVSPropertyOp50
 70
     1
102
RTVSPropertyOp51
 70
     0
102
RTVSPropertyOp52
 70
     0
102
RTVSPropertyOp53
 70
     1
102
RTVSPropertyOp54
 70
     1
102
RTVSPropertyOp55
 70
     1
102
RTVSPropertyOp56
 70
     1
102
RTVSPropertyOp57
 70
     1
102
RTVSPost2010Prop28
280
     0
102
RTVSPost2010PropOp28
 70
     1
102
RTVSPost2010Prop29
280
     1
102
RTVSPost2010PropOp29
 70
     1
102
RTVSPost2010Prop30
280
     1
102
RTVSPost2010PropOp30
 70
     1
102
RTVSPost2010Prop31
280
     0
102
RTVSPost2010PropOp31
 70
     1
102
RTVSPost2010Prop32
280
     0
102
RTVSPost2010PropOp32
 70
     1
102
RTVSPost2010Prop33
280
     0
102
RTVSPost2010PropOp33
 70
     1
102
RTVSPost2010Prop34
280
     0
102
RTVSPost2010PropOp34
 70
     1
102
RTVSPost2010Prop35
280
     0
102
RTVSPost2010PropOp35
 70
     1
102
RTVSPost2010Prop36
280
     0
102
RTVSPost2010PropOp36
 70
     1
102
RTVSPost2010Prop37
 90
       50
102
RTVSPost2010PropOp37
 70
     1
102
RTVSPost2010Prop38
140
0.0
102
RTVSPost2010PropOp38
 70
     1
102
RTVSPost2010Prop39
140
1.0
102
RTVSPost2010PropOp39
 70
     1
102
RTVSPost2010Prop40
 90
        0
102
RTVSPost2010PropOp40
 70
     1
102
RTVSPost2010Prop41ColorIndex
 90
       18
102
RTVSPost2010Prop41ColorRGB
 90
        0
102
RTVSPost2010PropOp41
 70
     1
102
RTVSPost2010Prop42
 90
       50
102
RTVSPost2010PropOp42
 70
     1
102
RTVSPost2010Prop43
 90
        3
102
RTVSPost2010PropOp43
 70
     1
102
RTVSPost2010Prop44ColorIndex
 90
        5
102
RTVSPost2010Prop44ColorRGB
 90
      255
102
RTVSPost2010PropOp44
 70
     1
102
RTVSPost2010Prop45
280
     0
102
RTVSPost2010PropOp45
 70
     1
102
RTVSPost2010Prop46
 90
       50
102
RTVSPost2010PropOp46
 70
     1
102
RTVSPost2010Prop47
 90
       50
102
RTVSPost2010PropOp47
 70
     1
102
RTVSPost2010Prop48
 90
       50
102
RTVSPost2010PropOp48
 70
     1
102
RTVSPost2010Prop49
280
     0
102
RTVSPost2010PropOp49
 70
     1
102
RTVSPost2010Prop50
 90
       50
102
RTVSPost2010PropOp50
 70
     1
102
RTVSPost2010Prop51ColorIndex
 90
      256
102
RTVSPost2010Prop51ColorRGB
 90
-16777216
102
RTVSPost2010PropOp51
 70
     0
102
RTVSPost2010Prop52
140
1.0
102
RTVSPost2010PropOp52
 70
     0
102
RTVSPost2010Prop53
 90
        2
102
RTVSPost2010PropOp53
 70
     1
102
RTVSPost2010Prop54
  1
strokes_ogs.tif
102
RTVSPost2010PropOp54
 70
     1
102
RTVSPost2010Prop55
280
     0
102
RTVSPost2010PropOp55
 70
     1
102
RTVSPost2010Prop56
140
1.0
102
RTVSPost2010PropOp56
 70
     1
102
RTVSPost2010Prop57
140
1.0
102
RTVSPost2010PropOp57
 70
     1
  0
XRECORD
  5
1BB
102
{ACAD_REACTORS
330
1BA
102
}
330
1BA
100
AcDbXrecord
280
     1
102
RTVSPropertyOp0
 70
     0
102
RTVSPropertyOp1
 70
     0
102
RTVSPropertyOp2
 70
     0
102
RTVSPropertyOp3
 70
     0
102
RTVSPropertyOp4
 70
     0
102
RTVSPropertyOp5
 70
     0
102
RTVSPropertyOp6
 70
     0
102
RTVSPropertyOp7
 70
     0
102
RTVSPropertyOp8
 70
     0
102
RTVSPropertyOp9
 70
     0
102
RTVSPropertyOp10
 70
     0
102
RTVSPropertyOp11
 70
     0
102
RTVSPropertyOp12
 70
     0
102
RTVSPropertyOp13
 70
     0
102
RTVSPropertyOp14
 70
     2
102
RTVSPropertyOp15
 70
     0
102
RTVSPropertyOp16
 70
     0
102
RTVSPropertyOp17
 70
     0
102
RTVSPropertyOp18
 70
     0
102
RTVSPropertyOp19
 70
     0
102
RTVSPropertyOp20
 70
     0
102
RTVSPropertyOp21
 70
     0
102
RTVSPropertyOp22
 70
     0
102
RTVSPropertyOp23
 70
     0
102
RTVSPropertyOp24
 70
     0
102
RTVSPropertyOp25
 70
     0
102
RTVSPropertyOp26
 70
     0
102
RTVSPropertyOp27
 70
     0
102
RTVSPropertyOp28
 70
     0
102
RTVSPropertyOp29
 70
     0
102
RTVSPropertyOp30
 70
     0
102
RTVSPropertyOp31
 70
     0
102
RTVSPropertyOp32
 70
     0
102
RTVSPropertyOp33
 70
     0
102
RTVSPropertyOp34
 70
     0
102
RTVSPropertyOp35
 70
     0
102
RTVSPropertyOp36
 70
     0
102
RTVSPropertyOp37
 70
     0
102
RTVSPropertyOp38
 70
     0
102
RTVSPropertyOp39
 70
     0
102
RTVSPropertyOp40
 70
     0
102
RTVSPropertyOp41
 70
     0
102
RTVSPropertyOp42
 70
     0
102
RTVSPropertyOp43
 70
     0
102
RTVSPropertyOp44
 70
     0
102
RTVSPropertyOp45
 70
     0
102
RTVSPropertyOp46
 70
     0
102
RTVSPropertyOp47
 70
     0
102
RTVSPropertyOp48
 70
     0
102
RTVSPropertyOp49
 70
     0
102
RTVSPropertyOp50
 70
     0
102
RTVSPropertyOp51
 70
     0
102
RTVSPropertyOp52
 70
     0
102
RTVSPropertyOp53
 70
     0
102
RTVSPropertyOp54
 70
     0
102
RTVSPropertyOp55
 70
     0
102
RTVSPropertyOp56
 70
     0
102
RTVSPropertyOp57
 70
     0
102
RTVSPost2010Prop28
280
     0
102
RTVSPost2010PropOp28
 70
     0
102
RTVSPost2010Prop29
280
     1
102
RTVSPost2010PropOp29
 70
     0
102
RTVSPost2010Prop30
280
     1
102
RTVSPost2010PropOp30
 70
     0
102
RTVSPost2010Prop31
280
     0
102
RTVSPost2010PropOp31
 70
     0
102
RTVSPost2010Prop32
280
     0
102
RTVSPost2010PropOp32
 70
     0
102
RTVSPost2010Prop33
280
     0
102
RTVSPost2010PropOp33
 70
     0
102
RTVSPost2010Prop34
280
     0
102
RTVSPost2010PropOp34
 70
     0
102
RTVSPost2010Prop35
280
     0
102
RTVSPost2010PropOp35
 70
     0
102
RTVSPost2010Prop36
280
     0
102
RTVSPost2010PropOp36
 70
     0
102
RTVSPost2010Prop37
 90
       50
102
RTVSPost2010PropOp37
 70
     0
102
RTVSPost2010Prop38
140
0.0
102
RTVSPost2010PropOp38
 70
     0
102
RTVSPost2010Prop39
140
1.0
102
RTVSPost2010PropOp39
 70
     0
102
RTVSPost2010Prop40
 90
        0
102
RTVSPost2010PropOp40
 70
     0
102
RTVSPost2010Prop41ColorIndex
 90
       18
102
RTVSPost2010Prop41ColorRGB
 90
        0
102
RTVSPost2010PropOp41
 70
     0
102
RTVSPost2010Prop42
 90
       50
102
RTVSPost2010PropOp42
 70
     0
102
RTVSPost2010Prop43
 90
        3
102
RTVSPost2010PropOp43
 70
     0
102
RTVSPost2010Prop44ColorIndex
 90
        5
102
RTVSPost2010Prop44ColorRGB
 90
      255
102
RTVSPost2010PropOp44
 70
     0
102
RTVSPost2010Prop45
280
     0
102
RTVSPost2010PropOp45
 70
     0
102
RTVSPost2010Prop46
 90
       50
102
RTVSPost2010PropOp46
 70
     0
102
RTVSPost2010Prop47
 90
       50
102
RTVSPost2010PropOp47
 70
     0
102
RTVSPost2010Prop48
 90
       50
102
RTVSPost2010PropOp48
 70
     0
102
RTVSPost2010Prop49
280
     0
102
RTVSPost2010PropOp49
 70
     0
102
RTVSPost2010Prop50
 90
       50
102
RTVSPost2010PropOp50
 70
     0
102
RTVSPost2010Prop51ColorIndex
 90
      256
102
RTVSPost2010Prop51ColorRGB
 90
-16777216
102
RTVSPost2010PropOp51
 70
     0
102
RTVSPost2010Prop52
140
1.0
102
RTVSPost2010PropOp52
 70
     0
102
RTVSPost2010Prop53
 90
        2
102
RTVSPost2010PropOp53
 70
     0
102
RTVSPost2010Prop54
  1
strokes_ogs.tif
102
RTVSPost2010PropOp54
 70
     0
102
RTVSPost2010Prop55
280
     0
102
RTVSPost2010PropOp55
 70
     0
102
RTVSPost2010Prop56
140
1.0
102
RTVSPost2010PropOp56
 70
     0
102
RTVSPost2010Prop57
140
1.0
102
RTVSPost2010PropOp57
 70
     0
  0
XRECORD
  5
1B5
102
{ACAD_REACTORS
330
1B4
102
}
330
1B4
100
AcDbXrecord
280
     1
102
RTVSPropertyOp0
 70
     1
102
RTVSPropertyOp1
 70
     1
102
RTVSPropertyOp2
 70
     1
102
RTVSPropertyOp3
 70
     1
102
RTVSPropertyOp4
 70
     1
102
RTVSPropertyOp5
 70
     1
102
RTVSPropertyOp6
 70
     1
102
RTVSPropertyOp7
 70
     1
102
RTVSPropertyOp8
 70
     1
102
RTVSPropertyOp9
 70
     1
102
RTVSPropertyOp10
 70
     1
102
RTVSPropertyOp11
 70
     1
102
RTVSPropertyOp12
 70
     1
102
RTVSPropertyOp13
 70
     1
102
RTVSPropertyOp14
 70
     1
102
RTVSPropertyOp15
 70
     1
102
RTVSPropertyOp16
 70
     1
102
RTVSPropertyOp17
 70
     1
102
RTVSPropertyOp18
 70
     1
102
RTVSPropertyOp19
 70
     1
102
RTVSPropertyOp20
 70
     1
102
RTVSPropertyOp21
 70
     1
102
RTVSPropertyOp22
 70
     1
102
RTVSPropertyOp23
 70
     1
102
RTVSPropertyOp24
 70
     1
102
RTVSPropertyOp25
 70
     1
102
RTVSPropertyOp26
 70
     1
102
RTVSPropertyOp27
 70
     1
102
RTVSPropertyOp28
 70
     1
102
RTVSPropertyOp29
 70
     1
102
RTVSPropertyOp30
 70
     1
102
RTVSPropertyOp31
 70
     1
102
RTVSPropertyOp32
 70
     1
102
RTVSPropertyOp33
 70
     1
102
RTVSPropertyOp34
 70
     1
102
RTVSPropertyOp35
 70
     1
102
RTVSPropertyOp36
 70
     1
102
RTVSPropertyOp37
 70
     1
102
RTVSPropertyOp38
 70
     1
102
RTVSPropertyOp39
 70
     1
102
RTVSPropertyOp40
 70
     1
102
RTVSPropertyOp41
 70
     1
102
RTVSPropertyOp42
 70
     1
102
RTVSPropertyOp43
 70
     1
102
RTVSPropertyOp44
 70
     1
102
RTVSPropertyOp45
 70
     1
102
RTVSPropertyOp46
 70
     1
102
RTVSPropertyOp47
 70
     1
102
RTVSPropertyOp48
 70
     1
102
RTVSPropertyOp49
 70
     1
102
RTVSPropertyOp50
 70
     1
102
RTVSPropertyOp51
 70
     0
102
RTVSPropertyOp52
 70
     0
102
RTVSPropertyOp53
 70
     1
102
RTVSPropertyOp54
 70
     1
102
RTVSPropertyOp55
 70
     1
102
RTVSPropertyOp56
 70
     1
102
RTVSPropertyOp57
 70
     1
102
RTVSPost2010Prop28
280
     0
102
RTVSPost2010PropOp28
 70
     1
102
RTVSPost2010Prop29
280
     1
102
RTVSPost2010PropOp29
 70
     1
102
RTVSPost2010Prop30
280
     1
102
RTVSPost2010PropOp30
 70
     1
102
RTVSPost2010Prop31
280
     0
102
RTVSPost2010PropOp31
 70
     1
102
RTVSPost2010Prop32
280
     0
102
RTVSPost2010PropOp32
 70
     1
102
RTVSPost2010Prop33
280
     0
102
RTVSPost2010PropOp33
 70
     1
102
RTVSPost2010Prop34
280
     0
102
RTVSPost2010PropOp34
 70
     1
102
RTVSPost2010Prop35
280
     0
102
RTVSPost2010PropOp35
 70
     1
102
RTVSPost2010Prop36
280
     0
102
RTVSPost2010PropOp36
 70
     1
102
RTVSPost2010Prop37
 90
       50
102
RTVSPost2010PropOp37
 70
     1
102
RTVSPost2010Prop38
140
0.0
102
RTVSPost2010PropOp38
 70
     1
102
RTVSPost2010Prop39
140
1.0
102
RTVSPost2010PropOp39
 70
     1
102
RTVSPost2010Prop40
 90
        0
102
RTVSPost2010PropOp40
 70
     1
102
RTVSPost2010Prop41ColorIndex
 90
       18
102
RTVSPost2010Prop41ColorRGB
 90
        0
102
RTVSPost2010PropOp41
 70
     1
102
RTVSPost2010Prop42
 90
       50
102
RTVSPost2010PropOp42
 70
     1
102
RTVSPost2010Prop43
 90
        3
102
RTVSPost2010PropOp43
 70
     1
102
RTVSPost2010Prop44ColorIndex
 90
        5
102
RTVSPost2010Prop44ColorRGB
 90
      255
102
RTVSPost2010PropOp44
 70
     1
102
RTVSPost2010Prop45
280
     0
102
RTVSPost2010PropOp45
 70
     1
102
RTVSPost2010Prop46
 90
       50
102
RTVSPost2010PropOp46
 70
     1
102
RTVSPost2010Prop47
 90
       50
102
RTVSPost2010PropOp47
 70
     1
102
RTVSPost2010Prop48
 90
       50
102
RTVSPost2010PropOp48
 70
     1
102
RTVSPost2010Prop49
280
     0
102
RTVSPost2010PropOp49
 70
     1
102
RTVSPost2010Prop50
 90
       50
102
RTVSPost2010PropOp50
 70
     1
102
RTVSPost2010Prop51ColorIndex
 90
      256
102
RTVSPost2010Prop51ColorRGB
 90
-16777216
102
RTVSPost2010PropOp51
 70
     0
102
RTVSPost2010Prop52
140
1.0
102
RTVSPost2010PropOp52
 70
     0
102
RTVSPost2010Prop53
 90
        2
102
RTVSPost2010PropOp53
 70
     1
102
RTVSPost2010Prop54
  1
strokes_ogs.tif
102
RTVSPost2010PropOp54
 70
     1
102
RTVSPost2010Prop55
280
     0
102
RTVSPost2010PropOp55
 70
     1
102
RTVSPost2010Prop56
140
1.0
102
RTVSPost2010PropOp56
 70
     1
102
RTVSPost2010Prop57
140
1.0
102
RTVSPost2010PropOp57
 70
     1
  0
XRECORD
  5
1BD
102
{ACAD_REACTORS
330
1BC
102
}
330
1BC
100
AcDbXrecord
280
     1
102
RTVSPropertyOp0
 70
     0
102
RTVSPropertyOp1
 70
     0
102
RTVSPropertyOp2
 70
     0
102
RTVSPropertyOp3
 70
     0
102
RTVSPropertyOp4
 70
     0
102
RTVSPropertyOp5
 70
     0
102
RTVSPropertyOp6
 70
     0
102
RTVSPropertyOp7
 70
     0
102
RTVSPropertyOp8
 70
     0
102
RTVSPropertyOp9
 70
     0
102
RTVSPropertyOp10
 70
     0
102
RTVSPropertyOp11
 70
     0
102
RTVSPropertyOp12
 70
     0
102
RTVSPropertyOp13
 70
     0
102
RTVSPropertyOp14
 70
     2
102
RTVSPropertyOp15
 70
     0
102
RTVSPropertyOp16
 70
     0
102
RTVSPropertyOp17
 70
     0
102
RTVSPropertyOp18
 70
     0
102
RTVSPropertyOp19
 70
     0
102
RTVSPropertyOp20
 70
     0
102
RTVSPropertyOp21
 70
     0
102
RTVSPropertyOp22
 70
     0
102
RTVSPropertyOp23
 70
     0
102
RTVSPropertyOp24
 70
     0
102
RTVSPropertyOp25
 70
     0
102
RTVSPropertyOp26
 70
     0
102
RTVSPropertyOp27
 70
     0
102
RTVSPropertyOp28
 70
     0
102
RTVSPropertyOp29
 70
     0
102
RTVSPropertyOp30
 70
     0
102
RTVSPropertyOp31
 70
     0
102
RTVSPropertyOp32
 70
     0
102
RTVSPropertyOp33
 70
     0
102
RTVSPropertyOp34
 70
     0
102
RTVSPropertyOp35
 70
     0
102
RTVSPropertyOp36
 70
     0
102
RTVSPropertyOp37
 70
     0
102
RTVSPropertyOp38
 70
     0
102
RTVSPropertyOp39
 70
     0
102
RTVSPropertyOp40
 70
     0
102
RTVSPropertyOp41
 70
     0
102
RTVSPropertyOp42
 70
     0
102
RTVSPropertyOp43
 70
     0
102
RTVSPropertyOp44
 70
     0
102
RTVSPropertyOp45
 70
     0
102
RTVSPropertyOp46
 70
     0
102
RTVSPropertyOp47
 70
     0
102
RTVSPropertyOp48
 70
     0
102
RTVSPropertyOp49
 70
     0
102
RTVSPropertyOp50
 70
     0
102
RTVSPropertyOp51
 70
     0
102
RTVSPropertyOp52
 70
     0
102
RTVSPropertyOp53
 70
     0
102
RTVSPropertyOp54
 70
     0
102
RTVSPropertyOp55
 70
     0
102
RTVSPropertyOp56
 70
     0
102
RTVSPropertyOp57
 70
     0
102
RTVSPost2010Prop28
280
     0
102
RTVSPost2010PropOp28
 70
     0
102
RTVSPost2010Prop29
280
     1
102
RTVSPost2010PropOp29
 70
     0
102
RTVSPost2010Prop30
280
     1
102
RTVSPost2010PropOp30
 70
     0
102
RTVSPost2010Prop31
280
     0
102
RTVSPost2010PropOp31
 70
     0
102
RTVSPost2010Prop32
280
     0
102
RTVSPost2010PropOp32
 70
     0
102
RTVSPost2010Prop33
280
     0
102
RTVSPost2010PropOp33
 70
     0
102
RTVSPost2010Prop34
280
     0
102
RTVSPost2010PropOp34
 70
     0
102
RTVSPost2010Prop35
280
     0
102
RTVSPost2010PropOp35
 70
     0
102
RTVSPost2010Prop36
280
     0
102
RTVSPost2010PropOp36
 70
     0
102
RTVSPost2010Prop37
 90
       50
102
RTVSPost2010PropOp37
 70
     0
102
RTVSPost2010Prop38
140
0.0
102
RTVSPost2010PropOp38
 70
     0
102
RTVSPost2010Prop39
140
1.0
102
RTVSPost2010PropOp39
 70
     0
102
RTVSPost2010Prop40
 90
        0
102
RTVSPost2010PropOp40
 70
     0
102
RTVSPost2010Prop41ColorIndex
 90
       18
102
RTVSPost2010Prop41ColorRGB
 90
        0
102
RTVSPost2010PropOp41
 70
     0
102
RTVSPost2010Prop42
 90
       50
102
RTVSPost2010PropOp42
 70
     0
102
RTVSPost2010Prop43
 90
        3
102
RTVSPost2010PropOp43
 70
     0
102
RTVSPost2010Prop44ColorIndex
 90
        5
102
RTVSPost2010Prop44ColorRGB
 90
      255
102
RTVSPost2010PropOp44
 70
     0
102
RTVSPost2010Prop45
280
     0
102
RTVSPost2010PropOp45
 70
     0
102
RTVSPost2010Prop46
 90
       50
102
RTVSPost2010PropOp46
 70
     0
102
RTVSPost2010Prop47
 90
       50
102
RTVSPost2010PropOp47
 70
     0
102
RTVSPost2010Prop48
 90
       50
102
RTVSPost2010PropOp48
 70
     0
102
RTVSPost2010Prop49
280
     0
102
RTVSPost2010PropOp49
 70
     0
102
RTVSPost2010Prop50
 90
       50
102
RTVSPost2010PropOp50
 70
     0
102
RTVSPost2010Prop51ColorIndex
 90
      256
102
RTVSPost2010Prop51ColorRGB
 90
-16777216
102
RTVSPost2010PropOp51
 70
     0
102
RTVSPost2010Prop52
140
1.0
102
RTVSPost2010PropOp52
 70
     0
102
RTVSPost2010Prop53
 90
        2
102
RTVSPost2010PropOp53
 70
     0
102
RTVSPost2010Prop54
  1
strokes_ogs.tif
102
RTVSPost2010PropOp54
 70
     0
102
RTVSPost2010Prop55
280
     0
102
RTVSPost2010PropOp55
 70
     0
102
RTVSPost2010Prop56
140
1.0
102
RTVSPost2010PropOp56
 70
     0
102
RTVSPost2010Prop57
140
1.0
102
RTVSPost2010PropOp57
 70
     0
  0
XRECORD
  5
1AB
102
{ACAD_REACTORS
330
1AA
102
}
330
1AA
100
AcDbXrecord
280
     1
102
RTVSPropertyOp0
 70
     1
102
RTVSPropertyOp1
 70
     1
102
RTVSPropertyOp2
 70
     1
102
RTVSPropertyOp3
 70
     1
102
RTVSPropertyOp4
 70
     1
102
RTVSPropertyOp5
 70
     1
102
RTVSPropertyOp6
 70
     1
102
RTVSPropertyOp7
 70
     1
102
RTVSPropertyOp8
 70
     1
102
RTVSPropertyOp9
 70
     1
102
RTVSPropertyOp10
 70
     1
102
RTVSPropertyOp11
 70
     1
102
RTVSPropertyOp12
 70
     1
102
RTVSPropertyOp13
 70
     1
102
RTVSPropertyOp14
 70
     1
102
RTVSPropertyOp15
 70
     1
102
RTVSPropertyOp16
 70
     1
102
RTVSPropertyOp17
 70
     1
102
RTVSPropertyOp18
 70
     1
102
RTVSPropertyOp19
 70
     1
102
RTVSPropertyOp20
 70
     1
102
RTVSPropertyOp21
 70
     1
102
RTVSPropertyOp22
 70
     1
102
RTVSPropertyOp23
 70
     1
102
RTVSPropertyOp24
 70
     1
102
RTVSPropertyOp25
 70
     1
102
RTVSPropertyOp26
 70
     1
102
RTVSPropertyOp27
 70
     1
102
RTVSPropertyOp28
 70
     1
102
RTVSPropertyOp29
 70
     1
102
RTVSPropertyOp30
 70
     1
102
RTVSPropertyOp31
 70
     1
102
RTVSPropertyOp32
 70
     1
102
RTVSPropertyOp33
 70
     1
102
RTVSPropertyOp34
 70
     1
102
RTVSPropertyOp35
 70
     1
102
RTVSPropertyOp36
 70
     1
102
RTVSPropertyOp37
 70
     1
102
RTVSPropertyOp38
 70
     1
102
RTVSPropertyOp39
 70
     1
102
RTVSPropertyOp40
 70
     1
102
RTVSPropertyOp41
 70
     1
102
RTVSPropertyOp42
 70
     1
102
RTVSPropertyOp43
 70
     1
102
RTVSPropertyOp44
 70
     1
102
RTVSPropertyOp45
 70
     1
102
RTVSPropertyOp46
 70
     1
102
RTVSPropertyOp47
 70
     1
102
RTVSPropertyOp48
 70
     1
102
RTVSPropertyOp49
 70
     1
102
RTVSPropertyOp50
 70
     1
102
RTVSPropertyOp51
 70
     0
102
RTVSPropertyOp52
 70
     0
102
RTVSPropertyOp53
 70
     1
102
RTVSPropertyOp54
 70
     1
102
RTVSPropertyOp55
 70
     1
102
RTVSPropertyOp56
 70
     1
102
RTVSPropertyOp57
 70
     1
102
RTVSPost2010Prop28
280
     0
102
RTVSPost2010PropOp28
 70
     1
102
RTVSPost2010Prop29
280
     1
102
RTVSPost2010PropOp29
 70
     1
102
RTVSPost2010Prop30
280
     1
102
RTVSPost2010PropOp30
 70
     1
102
RTVSPost2010Prop31
280
     0
102
RTVSPost2010PropOp31
 70
     1
102
RTVSPost2010Prop32
280
     0
102
RTVSPost2010PropOp32
 70
     1
102
RTVSPost2010Prop33
280
     0
102
RTVSPost2010PropOp33
 70
     1
102
RTVSPost2010Prop34
280
     0
102
RTVSPost2010PropOp34
 70
     1
102
RTVSPost2010Prop35
280
     0
102
RTVSPost2010PropOp35
 70
     1
102
RTVSPost2010Prop36
280
     0
102
RTVSPost2010PropOp36
 70
     1
102
RTVSPost2010Prop37
 90
       50
102
RTVSPost2010PropOp37
 70
     1
102
RTVSPost2010Prop38
140
0.0
102
RTVSPost2010PropOp38
 70
     1
102
RTVSPost2010Prop39
140
1.0
102
RTVSPost2010PropOp39
 70
     1
102
RTVSPost2010Prop40
 90
        0
102
RTVSPost2010PropOp40
 70
     1
102
RTVSPost2010Prop41ColorIndex
 90
       18
102
RTVSPost2010Prop41ColorRGB
 90
        0
102
RTVSPost2010PropOp41
 70
     1
102
RTVSPost2010Prop42
 90
       50
102
RTVSPost2010PropOp42
 70
     1
102
RTVSPost2010Prop43
 90
        3
102
RTVSPost2010PropOp43
 70
     1
102
RTVSPost2010Prop44ColorIndex
 90
        5
102
RTVSPost2010Prop44ColorRGB
 90
      255
102
RTVSPost2010PropOp44
 70
     1
102
RTVSPost2010Prop45
280
     0
102
RTVSPost2010PropOp45
 70
     1
102
RTVSPost2010Prop46
 90
       50
102
RTVSPost2010PropOp46
 70
     1
102
RTVSPost2010Prop47
 90
       50
102
RTVSPost2010PropOp47
 70
     1
102
RTVSPost2010Prop48
 90
       50
102
RTVSPost2010PropOp48
 70
     1
102
RTVSPost2010Prop49
280
     0
102
RTVSPost2010PropOp49
 70
     1
102
RTVSPost2010Prop50
 90
       50
102
RTVSPost2010PropOp50
 70
     1
102
RTVSPost2010Prop51ColorIndex
 90
      256
102
RTVSPost2010Prop51ColorRGB
 90
-16777216
102
RTVSPost2010PropOp51
 70
     0
102
RTVSPost2010Prop52
140
1.0
102
RTVSPost2010PropOp52
 70
     0
102
RTVSPost2010Prop53
 90
        2
102
RTVSPost2010PropOp53
 70
     1
102
RTVSPost2010Prop54
  1
strokes_ogs.tif
102
RTVSPost2010PropOp54
 70
     1
102
RTVSPost2010Prop55
280
     0
102
RTVSPost2010PropOp55
 70
     1
102
RTVSPost2010Prop56
140
1.0
102
RTVSPost2010PropOp56
 70
     1
102
RTVSPost2010Prop57
140
1.0
102
RTVSPost2010PropOp57
 70
     1
  0
XRECORD
  5
1C9
102
{ACAD_REACTORS
330
1C8
102
}
330
1C8
100
AcDbXrecord
280
     1
102
RTVSPropertyOp0
 70
     1
102
RTVSPropertyOp1
 70
     1
102
RTVSPropertyOp2
 70
     1
102
RTVSPropertyOp3
 70
     1
102
RTVSPropertyOp4
 70
     1
102
RTVSPropertyOp5
 70
     1
102
RTVSPropertyOp6
 70
     1
102
RTVSPropertyOp7
 70
     1
102
RTVSPropertyOp8
 70
     1
102
RTVSPropertyOp9
 70
     1
102
RTVSPropertyOp10
 70
     1
102
RTVSPropertyOp11
 70
     1
102
RTVSPropertyOp12
 70
     1
102
RTVSPropertyOp13
 70
     1
102
RTVSPropertyOp14
 70
     1
102
RTVSPropertyOp15
 70
     1
102
RTVSPropertyOp16
 70
     1
102
RTVSPropertyOp17
 70
     1
102
RTVSPropertyOp18
 70
     1
102
RTVSPropertyOp19
 70
     1
102
RTVSPropertyOp20
 70
     1
102
RTVSPropertyOp21
 70
     1
102
RTVSPropertyOp22
 70
     1
102
RTVSPropertyOp23
 70
     1
102
RTVSPropertyOp24
 70
     1
102
RTVSPropertyOp25
 70
     1
102
RTVSPropertyOp26
 70
     1
102
RTVSPropertyOp27
 70
     1
102
RTVSPropertyOp28
 70
     1
102
RTVSPropertyOp29
 70
     1
102
RTVSPropertyOp30
 70
     1
102
RTVSPropertyOp31
 70
     1
102
RTVSPropertyOp32
 70
     1
102
RTVSPropertyOp33
 70
     1
102
RTVSPropertyOp34
 70
     1
102
RTVSPropertyOp35
 70
     1
102
RTVSPropertyOp36
 70
     1
102
RTVSPropertyOp37
 70
     1
102
RTVSPropertyOp38
 70
     1
102
RTVSPropertyOp39
 70
     1
102
RTVSPropertyOp40
 70
     1
102
RTVSPropertyOp41
 70
     1
102
RTVSPropertyOp42
 70
     1
102
RTVSPropertyOp43
 70
     1
102
RTVSPropertyOp44
 70
     1
102
RTVSPropertyOp45
 70
     1
102
RTVSPropertyOp46
 70
     1
102
RTVSPropertyOp47
 70
     1
102
RTVSPropertyOp48
 70
     1
102
RTVSPropertyOp49
 70
     1
102
RTVSPropertyOp50
 70
     1
102
RTVSPropertyOp51
 70
     0
102
RTVSPropertyOp52
 70
     0
102
RTVSPropertyOp53
 70
     1
102
RTVSPropertyOp54
 70
     1
102
RTVSPropertyOp55
 70
     1
102
RTVSPropertyOp56
 70
     1
102
RTVSPropertyOp57
 70
     1
102
RTVSPost2010Prop28
280
     0
102
RTVSPost2010PropOp28
 70
     1
102
RTVSPost2010Prop29
280
     1
102
RTVSPost2010PropOp29
 70
     1
102
RTVSPost2010Prop30
280
     1
102
RTVSPost2010PropOp30
 70
     1
102
RTVSPost2010Prop31
280
     0
102
RTVSPost2010PropOp31
 70
     1
102
RTVSPost2010Prop32
280
     0
102
RTVSPost2010PropOp32
 70
     1
102
RTVSPost2010Prop33
280
     0
102
RTVSPost2010PropOp33
 70
     1
102
RTVSPost2010Prop34
280
     0
102
RTVSPost2010PropOp34
 70
     1
102
RTVSPost2010Prop35
280
     0
102
RTVSPost2010PropOp35
 70
     1
102
RTVSPost2010Prop36
280
     0
102
RTVSPost2010PropOp36
 70
     1
102
RTVSPost2010Prop37
 90
       50
102
RTVSPost2010PropOp37
 70
     1
102
RTVSPost2010Prop38
140
0.0
102
RTVSPost2010PropOp38
 70
     1
102
RTVSPost2010Prop39
140
1.0
102
RTVSPost2010PropOp39
 70
     1
102
RTVSPost2010Prop40
 90
        0
102
RTVSPost2010PropOp40
 70
     1
102
RTVSPost2010Prop41ColorIndex
 90
       18
102
RTVSPost2010Prop41ColorRGB
 90
        0
102
RTVSPost2010PropOp41
 70
     1
102
RTVSPost2010Prop42
 90
       50
102
RTVSPost2010PropOp42
 70
     1
102
RTVSPost2010Prop43
 90
        3
102
RTVSPost2010PropOp43
 70
     1
102
RTVSPost2010Prop44ColorIndex
 90
        5
102
RTVSPost2010Prop44ColorRGB
 90
      255
102
RTVSPost2010PropOp44
 70
     1
102
RTVSPost2010Prop45
280
     0
102
RTVSPost2010PropOp45
 70
     1
102
RTVSPost2010Prop46
 90
       50
102
RTVSPost2010PropOp46
 70
     1
102
RTVSPost2010Prop47
 90
       50
102
RTVSPost2010PropOp47
 70
     1
102
RTVSPost2010Prop48
 90
       50
102
RTVSPost2010PropOp48
 70
     1
102
RTVSPost2010Prop49
280
     0
102
RTVSPost2010PropOp49
 70
     1
102
RTVSPost2010Prop50
 90
       50
102
RTVSPost2010PropOp50
 70
     1
102
RTVSPost2010Prop51ColorIndex
 90
      256
102
RTVSPost2010Prop51ColorRGB
 90
-16777216
102
RTVSPost2010PropOp51
 70
     0
102
RTVSPost2010Prop52
140
1.0
102
RTVSPost2010PropOp52
 70
     0
102
RTVSPost2010Prop53
 90
        2
102
RTVSPost2010PropOp53
 70
     1
102
RTVSPost2010Prop54
  1
strokes_ogs.tif
102
RTVSPost2010PropOp54
 70
     1
102
RTVSPost2010Prop55
280
     0
102
RTVSPost2010PropOp55
 70
     1
102
RTVSPost2010Prop56
140
1.0
102
RTVSPost2010PropOp56
 70
     1
102
RTVSPost2010Prop57
140
1.0
102
RTVSPost2010PropOp57
 70
     1
  0
XRECORD
  5
1C7
102
{ACAD_REACTORS
330
1C6
102
}
330
1C6
100
AcDbXrecord
280
     1
102
RTVSPropertyOp0
 70
     1
102
RTVSPropertyOp1
 70
     1
102
RTVSPropertyOp2
 70
     1
102
RTVSPropertyOp3
 70
     1
102
RTVSPropertyOp4
 70
     1
102
RTVSPropertyOp5
 70
     1
102
RTVSPropertyOp6
 70
     1
102
RTVSPropertyOp7
 70
     1
102
RTVSPropertyOp8
 70
     1
102
RTVSPropertyOp9
 70
     1
102
RTVSPropertyOp10
 70
     1
102
RTVSPropertyOp11
 70
     1
102
RTVSPropertyOp12
 70
     1
102
RTVSPropertyOp13
 70
     1
102
RTVSPropertyOp14
 70
     1
102
RTVSPropertyOp15
 70
     1
102
RTVSPropertyOp16
 70
     1
102
RTVSPropertyOp17
 70
     1
102
RTVSPropertyOp18
 70
     1
102
RTVSPropertyOp19
 70
     1
102
RTVSPropertyOp20
 70
     1
102
RTVSPropertyOp21
 70
     1
102
RTVSPropertyOp22
 70
     1
102
RTVSPropertyOp23
 70
     1
102
RTVSPropertyOp24
 70
     1
102
RTVSPropertyOp25
 70
     1
102
RTVSPropertyOp26
 70
     1
102
RTVSPropertyOp27
 70
     1
102
RTVSPropertyOp28
 70
     1
102
RTVSPropertyOp29
 70
     1
102
RTVSPropertyOp30
 70
     1
102
RTVSPropertyOp31
 70
     1
102
RTVSPropertyOp32
 70
     1
102
RTVSPropertyOp33
 70
     1
102
RTVSPropertyOp34
 70
     1
102
RTVSPropertyOp35
 70
     1
102
RTVSPropertyOp36
 70
     1
102
RTVSPropertyOp37
 70
     1
102
RTVSPropertyOp38
 70
     1
102
RTVSPropertyOp39
 70
     1
102
RTVSPropertyOp40
 70
     1
102
RTVSPropertyOp41
 70
     1
102
RTVSPropertyOp42
 70
     1
102
RTVSPropertyOp43
 70
     1
102
RTVSPropertyOp44
 70
     1
102
RTVSPropertyOp45
 70
     1
102
RTVSPropertyOp46
 70
     1
102
RTVSPropertyOp47
 70
     1
102
RTVSPropertyOp48
 70
     1
102
RTVSPropertyOp49
 70
     1
102
RTVSPropertyOp50
 70
     1
102
RTVSPropertyOp51
 70
     0
102
RTVSPropertyOp52
 70
     0
102
RTVSPropertyOp53
 70
     1
102
RTVSPropertyOp54
 70
     1
102
RTVSPropertyOp55
 70
     1
102
RTVSPropertyOp56
 70
     1
102
RTVSPropertyOp57
 70
     1
102
RTVSPost2010Prop28
280
     0
102
RTVSPost2010PropOp28
 70
     1
102
RTVSPost2010Prop29
280
     1
102
RTVSPost2010PropOp29
 70
     1
102
RTVSPost2010Prop30
280
     1
102
RTVSPost2010PropOp30
 70
     1
102
RTVSPost2010Prop31
280
     0
102
RTVSPost2010PropOp31
 70
     1
102
RTVSPost2010Prop32
280
     0
102
RTVSPost2010PropOp32
 70
     1
102
RTVSPost2010Prop33
280
     0
102
RTVSPost2010PropOp33
 70
     1
102
RTVSPost2010Prop34
280
     0
102
RTVSPost2010PropOp34
 70
     1
102
RTVSPost2010Prop35
280
     0
102
RTVSPost2010PropOp35
 70
     1
102
RTVSPost2010Prop36
280
     0
102
RTVSPost2010PropOp36
 70
     1
102
RTVSPost2010Prop37
 90
       50
102
RTVSPost2010PropOp37
 70
     1
102
RTVSPost2010Prop38
140
0.0
102
RTVSPost2010PropOp38
 70
     1
102
RTVSPost2010Prop39
140
1.0
102
RTVSPost2010PropOp39
 70
     1
102
RTVSPost2010Prop40
 90
        0
102
RTVSPost2010PropOp40
 70
     1
102
RTVSPost2010Prop41ColorIndex
 90
       18
102
RTVSPost2010Prop41ColorRGB
 90
        0
102
RTVSPost2010PropOp41
 70
     1
102
RTVSPost2010Prop42
 90
       50
102
RTVSPost2010PropOp42
 70
     1
102
RTVSPost2010Prop43
 90
        3
102
RTVSPost2010PropOp43
 70
     1
102
RTVSPost2010Prop44ColorIndex
 90
        5
102
RTVSPost2010Prop44ColorRGB
 90
      255
102
RTVSPost2010PropOp44
 70
     1
102
RTVSPost2010Prop45
280
     0
102
RTVSPost2010PropOp45
 70
     1
102
RTVSPost2010Prop46
 90
       50
102
RTVSPost2010PropOp46
 70
     1
102
RTVSPost2010Prop47
 90
       50
102
RTVSPost2010PropOp47
 70
     1
102
RTVSPost2010Prop48
 90
       50
102
RTVSPost2010PropOp48
 70
     1
102
RTVSPost2010Prop49
280
     0
102
RTVSPost2010PropOp49
 70
     1
102
RTVSPost2010Prop50
 90
       50
102
RTVSPost2010PropOp50
 70
     1
102
RTVSPost2010Prop51ColorIndex
 90
      256
102
RTVSPost2010Prop51ColorRGB
 90
-16777216
102
RTVSPost2010PropOp51
 70
     0
102
RTVSPost2010Prop52
140
1.0
102
RTVSPost2010PropOp52
 70
     0
102
RTVSPost2010Prop53
 90
        2
102
RTVSPost2010PropOp53
 70
     1
102
RTVSPost2010Prop54
  1
strokes_ogs.tif
102
RTVSPost2010PropOp54
 70
     1
102
RTVSPost2010Prop55
280
     0
102
RTVSPost2010PropOp55
 70
     1
102
RTVSPost2010Prop56
140
1.0
102
RTVSPost2010PropOp56
 70
     1
102
RTVSPost2010Prop57
140
1.0
102
RTVSPost2010PropOp57
 70
     1
  0
XRECORD
  5
1C1
102
{ACAD_REACTORS
330
1C0
102
}
330
1C0
100
AcDbXrecord
280
     1
102
RTVSPropertyOp0
 70
     1
102
RTVSPropertyOp1
 70
     1
102
RTVSPropertyOp2
 70
     1
102
RTVSPropertyOp3
 70
     1
102
RTVSPropertyOp4
 70
     1
102
RTVSPropertyOp5
 70
     1
102
RTVSPropertyOp6
 70
     1
102
RTVSPropertyOp7
 70
     1
102
RTVSPropertyOp8
 70
     1
102
RTVSPropertyOp9
 70
     1
102
RTVSPropertyOp10
 70
     1
102
RTVSPropertyOp11
 70
     1
102
RTVSPropertyOp12
 70
     1
102
RTVSPropertyOp13
 70
     1
102
RTVSPropertyOp14
 70
     1
102
RTVSPropertyOp15
 70
     1
102
RTVSPropertyOp16
 70
     1
102
RTVSPropertyOp17
 70
     1
102
RTVSPropertyOp18
 70
     1
102
RTVSPropertyOp19
 70
     1
102
RTVSPropertyOp20
 70
     1
102
RTVSPropertyOp21
 70
     1
102
RTVSPropertyOp22
 70
     1
102
RTVSPropertyOp23
 70
     1
102
RTVSPropertyOp24
 70
     1
102
RTVSPropertyOp25
 70
     1
102
RTVSPropertyOp26
 70
     1
102
RTVSPropertyOp27
 70
     1
102
RTVSPropertyOp28
 70
     1
102
RTVSPropertyOp29
 70
     1
102
RTVSPropertyOp30
 70
     1
102
RTVSPropertyOp31
 70
     1
102
RTVSPropertyOp32
 70
     1
102
RTVSPropertyOp33
 70
     1
102
RTVSPropertyOp34
 70
     1
102
RTVSPropertyOp35
 70
     1
102
RTVSPropertyOp36
 70
     1
102
RTVSPropertyOp37
 70
     1
102
RTVSPropertyOp38
 70
     1
102
RTVSPropertyOp39
 70
     1
102
RTVSPropertyOp40
 70
     1
102
RTVSPropertyOp41
 70
     1
102
RTVSPropertyOp42
 70
     1
102
RTVSPropertyOp43
 70
     1
102
RTVSPropertyOp44
 70
     1
102
RTVSPropertyOp45
 70
     1
102
RTVSPropertyOp46
 70
     1
102
RTVSPropertyOp47
 70
     1
102
RTVSPropertyOp48
 70
     1
102
RTVSPropertyOp49
 70
     1
102
RTVSPropertyOp50
 70
     1
102
RTVSPropertyOp51
 70
     0
102
RTVSPropertyOp52
 70
     0
102
RTVSPropertyOp53
 70
     1
102
RTVSPropertyOp54
 70
     1
102
RTVSPropertyOp55
 70
     1
102
RTVSPropertyOp56
 70
     1
102
RTVSPropertyOp57
 70
     1
102
RTVSPost2010Prop28
280
     0
102
RTVSPost2010PropOp28
 70
     1
102
RTVSPost2010Prop29
280
     1
102
RTVSPost2010PropOp29
 70
     1
102
RTVSPost2010Prop30
280
     1
102
RTVSPost2010PropOp30
 70
     1
102
RTVSPost2010Prop31
280
     0
102
RTVSPost2010PropOp31
 70
     1
102
RTVSPost2010Prop32
280
     0
102
RTVSPost2010PropOp32
 70
     1
102
RTVSPost2010Prop33
280
     0
102
RTVSPost2010PropOp33
 70
     1
102
RTVSPost2010Prop34
280
     0
102
RTVSPost2010PropOp34
 70
     1
102
RTVSPost2010Prop35
280
     0
102
RTVSPost2010PropOp35
 70
     1
102
RTVSPost2010Prop36
280
     0
102
RTVSPost2010PropOp36
 70
     1
102
RTVSPost2010Prop37
 90
       50
102
RTVSPost2010PropOp37
 70
     1
102
RTVSPost2010Prop38
140
0.0
102
RTVSPost2010PropOp38
 70
     1
102
RTVSPost2010Prop39
140
1.0
102
RTVSPost2010PropOp39
 70
     1
102
RTVSPost2010Prop40
 90
        0
102
RTVSPost2010PropOp40
 70
     1
102
RTVSPost2010Prop41ColorIndex
 90
       18
102
RTVSPost2010Prop41ColorRGB
 90
        0
102
RTVSPost2010PropOp41
 70
     1
102
RTVSPost2010Prop42
 90
       50
102
RTVSPost2010PropOp42
 70
     1
102
RTVSPost2010Prop43
 90
        3
102
RTVSPost2010PropOp43
 70
     1
102
RTVSPost2010Prop44ColorIndex
 90
        5
102
RTVSPost2010Prop44ColorRGB
 90
      255
102
RTVSPost2010PropOp44
 70
     1
102
RTVSPost2010Prop45
280
     0
102
RTVSPost2010PropOp45
 70
     1
102
RTVSPost2010Prop46
 90
       50
102
RTVSPost2010PropOp46
 70
     1
102
RTVSPost2010Prop47
 90
       50
102
RTVSPost2010PropOp47
 70
     1
102
RTVSPost2010Prop48
 90
       50
102
RTVSPost2010PropOp48
 70
     1
102
RTVSPost2010Prop49
280
     0
102
RTVSPost2010PropOp49
 70
     1
102
RTVSPost2010Prop50
 90
       50
102
RTVSPost2010PropOp50
 70
     1
102
RTVSPost2010Prop51ColorIndex
 90
      256
102
RTVSPost2010Prop51ColorRGB
 90
-16777216
102
RTVSPost2010PropOp51
 70
     0
102
RTVSPost2010Prop52
140
1.0
102
RTVSPost2010PropOp52
 70
     0
102
RTVSPost2010Prop53
 90
        2
102
RTVSPost2010PropOp53
 70
     1
102
RTVSPost2010Prop54
  1
strokes_ogs.tif
102
RTVSPost2010PropOp54
 70
     1
102
RTVSPost2010Prop55
280
     0
102
RTVSPost2010PropOp55
 70
     1
102
RTVSPost2010Prop56
140
1.0
102
RTVSPost2010PropOp56
 70
     1
102
RTVSPost2010Prop57
140
1.0
102
RTVSPost2010PropOp57
 70
     1
  0
XRECORD
  5
1C3
102
{ACAD_REACTORS
330
1C2
102
}
330
1C2
100
AcDbXrecord
280
     1
102
RTVSPropertyOp0
 70
     1
102
RTVSPropertyOp1
 70
     1
102
RTVSPropertyOp2
 70
     1
102
RTVSPropertyOp3
 70
     1
102
RTVSPropertyOp4
 70
     1
102
RTVSPropertyOp5
 70
     1
102
RTVSPropertyOp6
 70
     1
102
RTVSPropertyOp7
 70
     1
102
RTVSPropertyOp8
 70
     1
102
RTVSPropertyOp9
 70
     1
102
RTVSPropertyOp10
 70
     1
102
RTVSPropertyOp11
 70
     1
102
RTVSPropertyOp12
 70
     1
102
RTVSPropertyOp13
 70
     1
102
RTVSPropertyOp14
 70
     1
102
RTVSPropertyOp15
 70
     1
102
RTVSPropertyOp16
 70
     1
102
RTVSPropertyOp17
 70
     1
102
RTVSPropertyOp18
 70
     1
102
RTVSPropertyOp19
 70
     1
102
RTVSPropertyOp20
 70
     1
102
RTVSPropertyOp21
 70
     1
102
RTVSPropertyOp22
 70
     1
102
RTVSPropertyOp23
 70
     1
102
RTVSPropertyOp24
 70
     1
102
RTVSPropertyOp25
 70
     1
102
RTVSPropertyOp26
 70
     1
102
RTVSPropertyOp27
 70
     1
102
RTVSPropertyOp28
 70
     1
102
RTVSPropertyOp29
 70
     1
102
RTVSPropertyOp30
 70
     1
102
RTVSPropertyOp31
 70
     1
102
RTVSPropertyOp32
 70
     1
102
RTVSPropertyOp33
 70
     1
102
RTVSPropertyOp34
 70
     1
102
RTVSPropertyOp35
 70
     1
102
RTVSPropertyOp36
 70
     1
102
RTVSPropertyOp37
 70
     1
102
RTVSPropertyOp38
 70
     1
102
RTVSPropertyOp39
 70
     1
102
RTVSPropertyOp40
 70
     1
102
RTVSPropertyOp41
 70
     1
102
RTVSPropertyOp42
 70
     1
102
RTVSPropertyOp43
 70
     1
102
RTVSPropertyOp44
 70
     1
102
RTVSPropertyOp45
 70
     1
102
RTVSPropertyOp46
 70
     1
102
RTVSPropertyOp47
 70
     1
102
RTVSPropertyOp48
 70
     1
102
RTVSPropertyOp49
 70
     1
102
RTVSPropertyOp50
 70
     1
102
RTVSPropertyOp51
 70
     0
102
RTVSPropertyOp52
 70
     0
102
RTVSPropertyOp53
 70
     1
102
RTVSPropertyOp54
 70
     1
102
RTVSPropertyOp55
 70
     1
102
RTVSPropertyOp56
 70
     1
102
RTVSPropertyOp57
 70
     1
102
RTVSPost2010Prop28
280
     0
102
RTVSPost2010PropOp28
 70
     1
102
RTVSPost2010Prop29
280
     1
102
RTVSPost2010PropOp29
 70
     1
102
RTVSPost2010Prop30
280
     1
102
RTVSPost2010PropOp30
 70
     1
102
RTVSPost2010Prop31
280
     0
102
RTVSPost2010PropOp31
 70
     1
102
RTVSPost2010Prop32
280
     0
102
RTVSPost2010PropOp32
 70
     1
102
RTVSPost2010Prop33
280
     0
102
RTVSPost2010PropOp33
 70
     1
102
RTVSPost2010Prop34
280
     0
102
RTVSPost2010PropOp34
 70
     1
102
RTVSPost2010Prop35
280
     0
102
RTVSPost2010PropOp35
 70
     1
102
RTVSPost2010Prop36
280
     0
102
RTVSPost2010PropOp36
 70
     1
102
RTVSPost2010Prop37
 90
       50
102
RTVSPost2010PropOp37
 70
     1
102
RTVSPost2010Prop38
140
0.0
102
RTVSPost2010PropOp38
 70
     1
102
RTVSPost2010Prop39
140
1.0
102
RTVSPost2010PropOp39
 70
     1
102
RTVSPost2010Prop40
 90
        0
102
RTVSPost2010PropOp40
 70
     1
102
RTVSPost2010Prop41ColorIndex
 90
       18
102
RTVSPost2010Prop41ColorRGB
 90
        0
102
RTVSPost2010PropOp41
 70
     1
102
RTVSPost2010Prop42
 90
       50
102
RTVSPost2010PropOp42
 70
     1
102
RTVSPost2010Prop43
 90
        3
102
RTVSPost2010PropOp43
 70
     1
102
RTVSPost2010Prop44ColorIndex
 90
        5
102
RTVSPost2010Prop44ColorRGB
 90
      255
102
RTVSPost2010PropOp44
 70
     1
102
RTVSPost2010Prop45
280
     0
102
RTVSPost2010PropOp45
 70
     1
102
RTVSPost2010Prop46
 90
       50
102
RTVSPost2010PropOp46
 70
     1
102
RTVSPost2010Prop47
 90
       50
102
RTVSPost2010PropOp47
 70
     1
102
RTVSPost2010Prop48
 90
       50
102
RTVSPost2010PropOp48
 70
     1
102
RTVSPost2010Prop49
280
     0
102
RTVSPost2010PropOp49
 70
     1
102
RTVSPost2010Prop50
 90
       50
102
RTVSPost2010PropOp50
 70
     1
102
RTVSPost2010Prop51ColorIndex
 90
      256
102
RTVSPost2010Prop51ColorRGB
 90
-16777216
102
RTVSPost2010PropOp51
 70
     0
102
RTVSPost2010Prop52
140
1.0
102
RTVSPost2010PropOp52
 70
     0
102
RTVSPost2010Prop53
 90
        2
102
RTVSPost2010PropOp53
 70
     1
102
RTVSPost2010Prop54
  1
strokes_ogs.tif
102
RTVSPost2010PropOp54
 70
     1
102
RTVSPost2010Prop55
280
     0
102
RTVSPost2010PropOp55
 70
     1
102
RTVSPost2010Prop56
140
1.0
102
RTVSPost2010PropOp56
 70
     1
102
RTVSPost2010Prop57
140
1.0
102
RTVSPost2010PropOp57
 70
     1
  0
XRECORD
  5
1B3
102
{ACAD_REACTORS
330
1B2
102
}
330
1B2
100
AcDbXrecord
280
     1
102
RTVSPropertyOp0
 70
     1
102
RTVSPropertyOp1
 70
     1
102
RTVSPropertyOp2
 70
     1
102
RTVSPropertyOp3
 70
     1
102
RTVSPropertyOp4
 70
     1
102
RTVSPropertyOp5
 70
     1
102
RTVSPropertyOp6
 70
     1
102
RTVSPropertyOp7
 70
     1
102
RTVSPropertyOp8
 70
     1
102
RTVSPropertyOp9
 70
     1
102
RTVSPropertyOp10
 70
     1
102
RTVSPropertyOp11
 70
     1
102
RTVSPropertyOp12
 70
     1
102
RTVSPropertyOp13
 70
     1
102
RTVSPropertyOp14
 70
     1
102
RTVSPropertyOp15
 70
     1
102
RTVSPropertyOp16
 70
     1
102
RTVSPropertyOp17
 70
     1
102
RTVSPropertyOp18
 70
     1
102
RTVSPropertyOp19
 70
     1
102
RTVSPropertyOp20
 70
     1
102
RTVSPropertyOp21
 70
     1
102
RTVSPropertyOp22
 70
     1
102
RTVSPropertyOp23
 70
     1
102
RTVSPropertyOp24
 70
     1
102
RTVSPropertyOp25
 70
     1
102
RTVSPropertyOp26
 70
     1
102
RTVSPropertyOp27
 70
     1
102
RTVSPropertyOp28
 70
     1
102
RTVSPropertyOp29
 70
     1
102
RTVSPropertyOp30
 70
     1
102
RTVSPropertyOp31
 70
     1
102
RTVSPropertyOp32
 70
     1
102
RTVSPropertyOp33
 70
     1
102
RTVSPropertyOp34
 70
     1
102
RTVSPropertyOp35
 70
     1
102
RTVSPropertyOp36
 70
     1
102
RTVSPropertyOp37
 70
     1
102
RTVSPropertyOp38
 70
     1
102
RTVSPropertyOp39
 70
     1
102
RTVSPropertyOp40
 70
     1
102
RTVSPropertyOp41
 70
     1
102
RTVSPropertyOp42
 70
     1
102
RTVSPropertyOp43
 70
     1
102
RTVSPropertyOp44
 70
     1
102
RTVSPropertyOp45
 70
     1
102
RTVSPropertyOp46
 70
     1
102
RTVSPropertyOp47
 70
     1
102
RTVSPropertyOp48
 70
     1
102
RTVSPropertyOp49
 70
     1
102
RTVSPropertyOp50
 70
     1
102
RTVSPropertyOp51
 70
     0
102
RTVSPropertyOp52
 70
     0
102
RTVSPropertyOp53
 70
     1
102
RTVSPropertyOp54
 70
     1
102
RTVSPropertyOp55
 70
     1
102
RTVSPropertyOp56
 70
     1
102
RTVSPropertyOp57
 70
     1
102
RTVSPost2010Prop28
280
     0
102
RTVSPost2010PropOp28
 70
     1
102
RTVSPost2010Prop29
280
     1
102
RTVSPost2010PropOp29
 70
     1
102
RTVSPost2010Prop30
280
     1
102
RTVSPost2010PropOp30
 70
     1
102
RTVSPost2010Prop31
280
     0
102
RTVSPost2010PropOp31
 70
     1
102
RTVSPost2010Prop32
280
     0
102
RTVSPost2010PropOp32
 70
     1
102
RTVSPost2010Prop33
280
     0
102
RTVSPost2010PropOp33
 70
     1
102
RTVSPost2010Prop34
280
     0
102
RTVSPost2010PropOp34
 70
     1
102
RTVSPost2010Prop35
280
     0
102
RTVSPost2010PropOp35
 70
     1
102
RTVSPost2010Prop36
280
     0
102
RTVSPost2010PropOp36
 70
     1
102
RTVSPost2010Prop37
 90
       50
102
RTVSPost2010PropOp37
 70
     1
102
RTVSPost2010Prop38
140
0.0
102
RTVSPost2010PropOp38
 70
     1
102
RTVSPost2010Prop39
140
1.0
102
RTVSPost2010PropOp39
 70
     1
102
RTVSPost2010Prop40
 90
        0
102
RTVSPost2010PropOp40
 70
     1
102
RTVSPost2010Prop41ColorIndex
 90
       18
102
RTVSPost2010Prop41ColorRGB
 90
        0
102
RTVSPost2010PropOp41
 70
     1
102
RTVSPost2010Prop42
 90
       50
102
RTVSPost2010PropOp42
 70
     1
102
RTVSPost2010Prop43
 90
        3
102
RTVSPost2010PropOp43
 70
     1
102
RTVSPost2010Prop44ColorIndex
 90
        5
102
RTVSPost2010Prop44ColorRGB
 90
      255
102
RTVSPost2010PropOp44
 70
     1
102
RTVSPost2010Prop45
280
     0
102
RTVSPost2010PropOp45
 70
     1
102
RTVSPost2010Prop46
 90
       50
102
RTVSPost2010PropOp46
 70
     1
102
RTVSPost2010Prop47
 90
       50
102
RTVSPost2010PropOp47
 70
     1
102
RTVSPost2010Prop48
 90
       50
102
RTVSPost2010PropOp48
 70
     1
102
RTVSPost2010Prop49
280
     0
102
RTVSPost2010PropOp49
 70
     1
102
RTVSPost2010Prop50
 90
       50
102
RTVSPost2010PropOp50
 70
     1
102
RTVSPost2010Prop51ColorIndex
 90
      256
102
RTVSPost2010Prop51ColorRGB
 90
-16777216
102
RTVSPost2010PropOp51
 70
     0
102
RTVSPost2010Prop52
140
1.0
102
RTVSPost2010PropOp52
 70
     0
102
RTVSPost2010Prop53
 90
        2
102
RTVSPost2010PropOp53
 70
     1
102
RTVSPost2010Prop54
  1
strokes_ogs.tif
102
RTVSPost2010PropOp54
 70
     1
102
RTVSPost2010Prop55
280
     0
102
RTVSPost2010PropOp55
 70
     1
102
RTVSPost2010Prop56
140
1.0
102
RTVSPost2010PropOp56
 70
     1
102
RTVSPost2010Prop57
140
1.0
102
RTVSPost2010PropOp57
 70
     1
  0
XRECORD
  5
1A5
102
{ACAD_REACTORS
330
1A4
102
}
330
1A4
100
AcDbXrecord
280
     1
102
RTVSPropertyOp0
 70
     1
102
RTVSPropertyOp1
 70
     1
102
RTVSPropertyOp2
 70
     1
102
RTVSPropertyOp3
 70
     1
102
RTVSPropertyOp4
 70
     1
102
RTVSPropertyOp5
 70
     1
102
RTVSPropertyOp6
 70
     1
102
RTVSPropertyOp7
 70
     1
102
RTVSPropertyOp8
 70
     1
102
RTVSPropertyOp9
 70
     1
102
RTVSPropertyOp10
 70
     1
102
RTVSPropertyOp11
 70
     1
102
RTVSPropertyOp12
 70
     1
102
RTVSPropertyOp13
 70
     1
102
RTVSPropertyOp14
 70
     1
102
RTVSPropertyOp15
 70
     1
102
RTVSPropertyOp16
 70
     1
102
RTVSPropertyOp17
 70
     1
102
RTVSPropertyOp18
 70
     1
102
RTVSPropertyOp19
 70
     1
102
RTVSPropertyOp20
 70
     1
102
RTVSPropertyOp21
 70
     1
102
RTVSPropertyOp22
 70
     1
102
RTVSPropertyOp23
 70
     1
102
RTVSPropertyOp24
 70
     1
102
RTVSPropertyOp25
 70
     1
102
RTVSPropertyOp26
 70
     1
102
RTVSPropertyOp27
 70
     1
102
RTVSPropertyOp28
 70
     1
102
RTVSPropertyOp29
 70
     1
102
RTVSPropertyOp30
 70
     1
102
RTVSPropertyOp31
 70
     1
102
RTVSPropertyOp32
 70
     1
102
RTVSPropertyOp33
 70
     1
102
RTVSPropertyOp34
 70
     1
102
RTVSPropertyOp35
 70
     1
102
RTVSPropertyOp36
 70
     1
102
RTVSPropertyOp37
 70
     1
102
RTVSPropertyOp38
 70
     1
102
RTVSPropertyOp39
 70
     1
102
RTVSPropertyOp40
 70
     1
102
RTVSPropertyOp41
 70
     1
102
RTVSPropertyOp42
 70
     1
102
RTVSPropertyOp43
 70
     1
102
RTVSPropertyOp44
 70
     1
102
RTVSPropertyOp45
 70
     1
102
RTVSPropertyOp46
 70
     1
102
RTVSPropertyOp47
 70
     1
102
RTVSPropertyOp48
 70
     1
102
RTVSPropertyOp49
 70
     1
102
RTVSPropertyOp50
 70
     1
102
RTVSPropertyOp51
 70
     0
102
RTVSPropertyOp52
 70
     0
102
RTVSPropertyOp53
 70
     1
102
RTVSPropertyOp54
 70
     1
102
RTVSPropertyOp55
 70
     1
102
RTVSPropertyOp56
 70
     1
102
RTVSPropertyOp57
 70
     1
102
RTVSPost2010Prop28
280
     0
102
RTVSPost2010PropOp28
 70
     1
102
RTVSPost2010Prop29
280
     1
102
RTVSPost2010PropOp29
 70
     1
102
RTVSPost2010Prop30
280
     1
102
RTVSPost2010PropOp30
 70
     1
102
RTVSPost2010Prop31
280
     0
102
RTVSPost2010PropOp31
 70
     1
102
RTVSPost2010Prop32
280
     0
102
RTVSPost2010PropOp32
 70
     1
102
RTVSPost2010Prop33
280
     0
102
RTVSPost2010PropOp33
 70
     1
102
RTVSPost2010Prop34
280
     0
102
RTVSPost2010PropOp34
 70
     1
102
RTVSPost2010Prop35
280
     0
102
RTVSPost2010PropOp35
 70
     1
102
RTVSPost2010Prop36
280
     0
102
RTVSPost2010PropOp36
 70
     1
102
RTVSPost2010Prop37
 90
       50
102
RTVSPost2010PropOp37
 70
     1
102
RTVSPost2010Prop38
140
0.0
102
RTVSPost2010PropOp38
 70
     1
102
RTVSPost2010Prop39
140
1.0
102
RTVSPost2010PropOp39
 70
     1
102
RTVSPost2010Prop40
 90
        0
102
RTVSPost2010PropOp40
 70
     1
102
RTVSPost2010Prop41ColorIndex
 90
       18
102
RTVSPost2010Prop41ColorRGB
 90
        0
102
RTVSPost2010PropOp41
 70
     1
102
RTVSPost2010Prop42
 90
       50
102
RTVSPost2010PropOp42
 70
     1
102
RTVSPost2010Prop43
 90
        3
102
RTVSPost2010PropOp43
 70
     1
102
RTVSPost2010Prop44ColorIndex
 90
        5
102
RTVSPost2010Prop44ColorRGB
 90
      255
102
RTVSPost2010PropOp44
 70
     1
102
RTVSPost2010Prop45
280
     0
102
RTVSPost2010PropOp45
 70
     1
102
RTVSPost2010Prop46
 90
       50
102
RTVSPost2010PropOp46
 70
     1
102
RTVSPost2010Prop47
 90
       50
102
RTVSPost2010PropOp47
 70
     1
102
RTVSPost2010Prop48
 90
       50
102
RTVSPost2010PropOp48
 70
     1
102
RTVSPost2010Prop49
280
     0
102
RTVSPost2010PropOp49
 70
     1
102
RTVSPost2010Prop50
 90
       50
102
RTVSPost2010PropOp50
 70
     1
102
RTVSPost2010Prop51ColorIndex
 90
      256
102
RTVSPost2010Prop51ColorRGB
 90
-16777216
102
RTVSPost2010PropOp51
 70
     0
102
RTVSPost2010Prop52
140
1.0
102
RTVSPost2010PropOp52
 70
     0
102
RTVSPost2010Prop53
 90
        2
102
RTVSPost2010PropOp53
 70
     1
102
RTVSPost2010Prop54
  1
strokes_ogs.tif
102
RTVSPost2010PropOp54
 70
     1
102
RTVSPost2010Prop55
280
     0
102
RTVSPost2010PropOp55
 70
     1
102
RTVSPost2010Prop56
140
1.0
102
RTVSPost2010PropOp56
 70
     1
102
RTVSPost2010Prop57
140
1.0
102
RTVSPost2010PropOp57
 70
     1
  0
XRECORD
  5
1C5
102
{ACAD_REACTORS
330
1C4
102
}
330
1C4
100
AcDbXrecord
280
     1
102
RTVSPropertyOp0
 70
     1
102
RTVSPropertyOp1
 70
     1
102
RTVSPropertyOp2
 70
     1
102
RTVSPropertyOp3
 70
     1
102
RTVSPropertyOp4
 70
     1
102
RTVSPropertyOp5
 70
     1
102
RTVSPropertyOp6
 70
     1
102
RTVSPropertyOp7
 70
     1
102
RTVSPropertyOp8
 70
     1
102
RTVSPropertyOp9
 70
     1
102
RTVSPropertyOp10
 70
     1
102
RTVSPropertyOp11
 70
     1
102
RTVSPropertyOp12
 70
     1
102
RTVSPropertyOp13
 70
     1
102
RTVSPropertyOp14
 70
     1
102
RTVSPropertyOp15
 70
     1
102
RTVSPropertyOp16
 70
     1
102
RTVSPropertyOp17
 70
     1
102
RTVSPropertyOp18
 70
     1
102
RTVSPropertyOp19
 70
     1
102
RTVSPropertyOp20
 70
     1
102
RTVSPropertyOp21
 70
     1
102
RTVSPropertyOp22
 70
     1
102
RTVSPropertyOp23
 70
     1
102
RTVSPropertyOp24
 70
     1
102
RTVSPropertyOp25
 70
     1
102
RTVSPropertyOp26
 70
     1
102
RTVSPropertyOp27
 70
     1
102
RTVSPropertyOp28
 70
     1
102
RTVSPropertyOp29
 70
     1
102
RTVSPropertyOp30
 70
     1
102
RTVSPropertyOp31
 70
     1
102
RTVSPropertyOp32
 70
     1
102
RTVSPropertyOp33
 70
     1
102
RTVSPropertyOp34
 70
     1
102
RTVSPropertyOp35
 70
     1
102
RTVSPropertyOp36
 70
     1
102
RTVSPropertyOp37
 70
     1
102
RTVSPropertyOp38
 70
     1
102
RTVSPropertyOp39
 70
     1
102
RTVSPropertyOp40
 70
     1
102
RTVSPropertyOp41
 70
     1
102
RTVSPropertyOp42
 70
     1
102
RTVSPropertyOp43
 70
     1
102
RTVSPropertyOp44
 70
     1
102
RTVSPropertyOp45
 70
     1
102
RTVSPropertyOp46
 70
     1
102
RTVSPropertyOp47
 70
     1
102
RTVSPropertyOp48
 70
     1
102
RTVSPropertyOp49
 70
     1
102
RTVSPropertyOp50
 70
     1
102
RTVSPropertyOp51
 70
     0
102
RTVSPropertyOp52
 70
     0
102
RTVSPropertyOp53
 70
     1
102
RTVSPropertyOp54
 70
     1
102
RTVSPropertyOp55
 70
     1
102
RTVSPropertyOp56
 70
     1
102
RTVSPropertyOp57
 70
     1
102
RTVSPost2010Prop28
280
     0
102
RTVSPost2010PropOp28
 70
     1
102
RTVSPost2010Prop29
280
     1
102
RTVSPost2010PropOp29
 70
     1
102
RTVSPost2010Prop30
280
     1
102
RTVSPost2010PropOp30
 70
     1
102
RTVSPost2010Prop31
280
     0
102
RTVSPost2010PropOp31
 70
     1
102
RTVSPost2010Prop32
280
     0
102
RTVSPost2010PropOp32
 70
     1
102
RTVSPost2010Prop33
280
     0
102
RTVSPost2010PropOp33
 70
     1
102
RTVSPost2010Prop34
280
     0
102
RTVSPost2010PropOp34
 70
     1
102
RTVSPost2010Prop35
280
     0
102
RTVSPost2010PropOp35
 70
     1
102
RTVSPost2010Prop36
280
     0
102
RTVSPost2010PropOp36
 70
     1
102
RTVSPost2010Prop37
 90
       50
102
RTVSPost2010PropOp37
 70
     1
102
RTVSPost2010Prop38
140
0.0
102
RTVSPost2010PropOp38
 70
     1
102
RTVSPost2010Prop39
140
1.0
102
RTVSPost2010PropOp39
 70
     1
102
RTVSPost2010Prop40
 90
        0
102
RTVSPost2010PropOp40
 70
     1
102
RTVSPost2010Prop41ColorIndex
 90
       18
102
RTVSPost2010Prop41ColorRGB
 90
        0
102
RTVSPost2010PropOp41
 70
     1
102
RTVSPost2010Prop42
 90
       50
102
RTVSPost2010PropOp42
 70
     1
102
RTVSPost2010Prop43
 90
        3
102
RTVSPost2010PropOp43
 70
     1
102
RTVSPost2010Prop44ColorIndex
 90
        5
102
RTVSPost2010Prop44ColorRGB
 90
      255
102
RTVSPost2010PropOp44
 70
     1
102
RTVSPost2010Prop45
280
     0
102
RTVSPost2010PropOp45
 70
     1
102
RTVSPost2010Prop46
 90
       50
102
RTVSPost2010PropOp46
 70
     1
102
RTVSPost2010Prop47
 90
       50
102
RTVSPost2010PropOp47
 70
     1
102
RTVSPost2010Prop48
 90
       50
102
RTVSPost2010PropOp48
 70
     1
102
RTVSPost2010Prop49
280
     0
102
RTVSPost2010PropOp49
 70
     1
102
RTVSPost2010Prop50
 90
       50
102
RTVSPost2010PropOp50
 70
     1
102
RTVSPost2010Prop51ColorIndex
 90
      256
102
RTVSPost2010Prop51ColorRGB
 90
-16777216
102
RTVSPost2010PropOp51
 70
     0
102
RTVSPost2010Prop52
140
1.0
102
RTVSPost2010PropOp52
 70
     0
102
RTVSPost2010Prop53
 90
        2
102
RTVSPost2010PropOp53
 70
     1
102
RTVSPost2010Prop54
  1
strokes_ogs.tif
102
RTVSPost2010PropOp54
 70
     1
102
RTVSPost2010Prop55
280
     0
102
RTVSPost2010PropOp55
 70
     1
102
RTVSPost2010Prop56
140
1.0
102
RTVSPost2010PropOp56
 70
     1
102
RTVSPost2010Prop57
140
1.0
102
RTVSPost2010PropOp57
 70
     1
  0
ENDSEC
  0
EOF
